Destruction

Início > Destructio... > acordes

Survive To Die Tablatura

Destruction

Dificultad:Ningún gradoNingún grado

brunblazkowski

tuner correct add songbook print version text version salvar en e-mail
acordesukuleletablaturabajobateríaarmónicaflautacavacopiano Guitar Pro
acordes

Survive To Die

	   

Tuning: E A D G B e

   0:00 
    Q=100 
   4/4 
    Gtrs I, II 
        PM|     PM|     PM|     PM|     PM|   PM|   PM| 
    S S S S S S S S S S S S S S S S   E S S E S S E S S Q 
||----------------------------------|-----------------------|| 
||o---------------------------------|----------------------o|| 
||----------------------------------|-----------------------|| 
||----------------------------------|-5-----5---------------|| 
||o-4S5-----5S6-----6S5-----5S4-----|-3-----3-----2--------o|| 
||--2S3-3-3-3S4-4-4-4S3-3-3-3S2-2-2-|---3-3---3-3-0-0-0-----|| 


        PM|     PM|     PM|     PM|     PM|   PM|   PM| 
    S S S S S S S S S S S S S S S S   E S S E S S E S S Q 
||----------------------------------|-----------------------|| 
||o---------------------------------|----------------------o|| 
||----------------------------------|-----------------------|| 
||----------------------------------|-7-----7---------------|| 
||o-6S7-----7S8-----8S7-----7S6-----|-5-----5-----4--------o|| 
||--4S5-5-5-5S6-6-6-6S5-5-5-5S4-4-4-|---5-5---5-5-2-2-2-----|| 


   0:19 
    Q=190 
   7/4 
    PM|   PM|   PM|   PM          PM|   PM|   PM|   PM 
    E E E E E E E E E E E E E E   E E E E E E E E E E S S S S S S S S  3x 
||------------------------------|--------------------------------------|| 
||o-----------------------------|-------------------------------------o|| 
||------------------------------|--------------------------------------|| 
||------------------------------|--------------------------------------|| 
||o-----7-----8-----7---5S6-5S6-|-----7-----8-----7---1h2p1h2---------o|| 
||--0-0-5-0-0-6-0-0-5-0-5S6-5S6-|-0-0-5-0-0-6-0-0-5-0---------1h2p1h2--|| 


  PM|   PM|   PM|   PM          PM|   PM|   PM| 
  E E E E E E E E E E E E E E   E E E E E E E E Q  H 
|-----------------------------|-------------------------| 
|-----------------------------|-------------------------| 
|-----------------------------|-------------------------| 
|-----------------------------|-------------------------| 
|-----7-----8-----7---5S6-5S6-|-----7-----8-----7-------| 
|-0-0-5-0-0-6-0-0-5-0-5S6-5S6-|-0-0-5-0-0-6-0-0-5-------| 


    PM|   PM|   PM|   PM          PM|   PM|   PM|   PM 
    E E E E E E E E E E E E E E   E E E E E E E E E E S S S S S S S S 
||------------------------------|---------------------------------------|| 
||o-----------------------------|--------------------------------------o|| 
||------------------------------|---------------------------------------|| 
||------------------------------|---------------------------------------|| 
||o-----7-----8-----7---5S6-5S6-|-----7-----8-----7---1h2p1h2----------o|| 
||--0-0-5-0-0-6-0-0-5-0-5S6-5S6-|-0-0-5-0-0-6-0-0-5-0---------1h2p1h2---|| 


   0:44 
    PM--------|   PM----| 
    S S S S S S E S S S S Q  E E E E S S S S 
||------------------------------------------- 
||o------------------------------------------ 
||------------------------------------------- 
||------------------------------------------- 
||o-------------9---------8--7S6-9S8-4h5p4h5- 
||--0-0-0-0-0-0-7-0-0-0-0-6--5S4-7S6--------- 


  PM--------|   PM----| 
  S S S S S S E S S S S Q  E E E E S S S S  4x 
|-------------------------------------------|| 
|------------------------------------------o|| 
|-------------------------------------------|| 
|-------------------------------------------|| 
|-------------9---------8--7S6-9S8-7h8p7h8-o|| 
|-0-0-0-0-0-0-7-0-0-0-0-6--5S4-7S6----------|| 


 1:01 
 6/4 
     PM|    PM|                              PM| 
  Q  E E Q  E E  E   E   E   E    E E E E Q  E E E E Q 
|-------------------------------|-----------------------| 
|-------------------------------|-----------------------| 
|-------------------------------|-----------------------| 
|---------------<5>-------------|-----4-5-7------3S4----| 
|-2------2----------<5>-<7>-----|-----2-3-5------1S2-2--| 
|-0--0-0-0--0-0-------------<7>-|-6S5--------0-0-----0--| 


                                                                3/4 
         PM|     PM|                              PM| 
    +Q   E E E E E E  E   E   E   E    E E E E Q  E E E E Q   3x H. 
||-----------------------------------|------------------------||-------| 
||o----------------------------------|-----------------------o||-------| 
||-----------------------------------|------------------------||-------| 
||-------------------<5>-------------|-----4-5-7------3S4-----||-------| 
||o-(2)------8S7---------<5>-<7>-----|-----2-3-5------1S2-2--o||-------| 
||--(0)--0-0-6S5-0-0-------------<7>-|-6S5--------0-0-----0---||-------| 


   1:15 
   7/4 
    PM|   PM|   PM|   PM          PM|   PM|   PM|   PM 
    E E E E E E E E E E E E E E   E E E E E E E E E E S S S S S S S S  3x 
||------------------------------|--------------------------------------|| 
||o-----------------------------|-------------------------------------o|| 
||------------------------------|--------------------------------------|| 
||------------------------------|--------------------------------------|| 
||o-----7-----8-----7---5S6-5S6-|-----7-----8-----7---1h2p1h2---------o|| 
||--0-0-5-0-0-6-0-0-5-0-5S6-5S6-|-0-0-5-0-0-6-0-0-5-0---------1h2p1h2--|| 


  PM|   PM|   PM|   PM          PM|   PM|   PM| 
  E E E E E E E E E E E E E E   E E E E E E E E Q  H 
|-----------------------------|-------------------------| 
|-----------------------------|-------------------------| 
|-----------------------------|-------------------------| 
|-----------------------------|-------------------------| 
|-----7-----8-----7---5S6-5S6-|-----7-----8-----7-------| 
|-0-0-5-0-0-6-0-0-5-0-5S6-5S6-|-0-0-5-0-0-6-0-0-5-------| 


    PM|   PM|   PM|   PM          PM|   PM|   PM|   PM 
    E E E E E E E E E E E E E E   E E E E E E E E E E S S S S S S S S 
||------------------------------|---------------------------------------|| 
||o-----------------------------|--------------------------------------o|| 
||------------------------------|---------------------------------------|| 
||------------------------------|---------------------------------------|| 
||o-----7-----8-----7---5S6-5S6-|-----7-----8-----7---1h2p1h2----------o|| 
||--0-0-5-0-0-6-0-0-5-0-5S6-5S6-|-0-0-5-0-0-6-0-0-5-0---------1h2p1h2---|| 


   1:32 
    PM--------|   PM----| 
    S S S S S S E S S S S Q  E E E E S S S S 
||------------------------------------------- 
||o------------------------------------------ 
||------------------------------------------- 
||------------------------------------------- 
||o-------------9---------8--7S6-9S8-4h5p4h5- 
||--0-0-0-0-0-0-7-0-0-0-0-6--5S4-7S6--------- 


  PM--------|   PM----| 
  S S S S S S E S S S S Q  E E E E S S S S  4x 
|-------------------------------------------|| 
|------------------------------------------o|| 
|-------------------------------------------|| 
|-------------------------------------------|| 
|-------------9---------8--7S6-9S8-7h8p7h8-o|| 
|-0-0-0-0-0-0-7-0-0-0-0-6--5S4-7S6----------|| 


 1:49 
 6/4 
     PM|    PM|                              PM| 
  Q  E E Q  E E  E   E   E   E    E E E E Q  E E E E Q 
|-------------------------------|----------------------- 
|-------------------------------|----------------------- 
|-------------------------------|----------------------- 
|---------------<5>-------------|-----4-5-7------3S4---- 
|-2------2----------<5>-<7>-----|-----2-3-5------1S2-2-- 
|-0--0-0-0--0-0-------------<7>-|-6S5--------0-0-----0-- 


         PM|     PM|                              PM| 
    +Q   E E E E E E  E   E   E   E    E E E E Q  E E E E Q    3x 
||-----------------------------------|-------------------------|| 
||o----------------------------------|------------------------o|| 
||-----------------------------------|-------------------------|| 
||-------------------<5>-------------|-----4-5-7------3S4------|| 
||o-(2)------8S7---------<5>-<7>-----|-----2-3-5------1S2-2---o|| 
||--(0)--0-0-6S5-0-0-------------<7>-|-6S5--------0-0-----0----|| 


   2:02 
    Q=140 
   4/4 
                                       PM-| 
    S S S E E. S S S E E.   S S S E E. E. E E.  4x 
||------------------------|---------------------|| 
||o-----------------------|--------------------o|| 
||------------------------|---------------------|| 
||------------------------|------------4--2-5---|| 
||o-4S5-4S5-3--4S5-4S5-3--|-4S5-4S5-3--2--0-3--o|| 
||--2S3-2S3-1--2S3-2S3-1--|-2S3-2S3-1-----------|| 


    Q=200 
                PM--|       PM--|     PM--| 
                |-3-|       |-3-|     |-3-| 
    E E E E E E S S S   E E S S S E E S S S 
||--------------------|---------------------| 
||o-------------------|---------------------| 
||--------------------|---------------------| 
||--2h5-1h4-----------|-2h5-------1h4-------| 
||o---------2h5-0-0-0-|-----0-0-0-----0-0-0-| 
||--------------------|---------------------| 


              PM--|       PM--| 
              |-3-|       |-3-| 
  E E E E E E S S S   E E S S S E E Q   4x 
|-------------------|-------------------|| 
|-------------------|------------------o|| 
|-------------------|-------------------|| 
|-2h5-1h4-----------|-2h5---------------|| 
|---------2h5-0-0-0-|-----0-0-0-5-4-2--o|| 
|-------------------|-----------3-2-0---|| 


    Q=140 
                                       PM-| 
    S S S E E. S S S E E.   S S S E E. E. E E.  4x 
||------------------------|---------------------|| 
||o-----------------------|--------------------o|| 
||------------------------|---------------------|| 
||------------------------|------------4----5---|| 
||o-4S5-4S5-3--4S5-4S5-3--|-4S5-4S5-3--2--7-3--o|| 
||--2S3-2S3-1--2S3-2S3-1--|-2S3-2S3-1-----5-----|| 


   2:47 
    Q=210 
      PM----|   PM----|   PM|     PM----|   PM----|   PM| 
    E S S S S E S S S S E S S   E S S S S E S S S S E S S 
||----------------------------|---------------------------| 
||o---------------------------|---------------------------| 
||--7---------7---------7-----|-6---------6---------6-----| 
||--5---------5---------5-----|-4---------4---------4-----| 
||o---5-5-5-5---5-5-5-5---5-5-|---4-4-4-4---4-4-4-4---4-4-| 
||----------------------------|---------------------------| 


    PM----|   PM----|   PM|     PM----|   PM----|   PM| 
  E S S S S E S S S S E S S   E S S S S E S S S S E S S 
|---------------------------|------------------------------| 
|---------------------------|------------------------------| 
|-5---------5---------5-----|-4---------4---------4--------| 
|-3---------3---------3-----|-2---------2---------2--------| 
|---3-3-3-3---3-3-3-3---3-3-|---2-2-2-2---2-2-2-2---2-2----| 
|---------------------------|------------------------------| 


    PM----|   PM----|   PM----|   PM--|   PM----|   PM| 
  E S S S S E S S S S E S S   E S S S S E S S S S E S S 
|---------------------------|---------------------------| 
|---------------------------|---------------------------| 
|---------------------------|---------------------------| 
|-5---------5---------5-----|-4---------4---------4-----| 
|-3---------3---------3-----|-2---------2---------2-----| 
|---3-3-3-3---3-3-3-3---3-3-|---2-2-2-2---2-2-2-2---2-2-| 


    PM----|   PM----|   PM|     PM----|   PM----|   PM| 
  E S S S S E S S S S E S S   E S S S S E S S S S E S S 
|---------------------------|-------------------------------|| 
|---------------------------|------------------------------o|| 
|-5---------5---------5-----|-4---------4---------4---------|| 
|-3---------3---------3-----|-2---------2---------2---------|| 
|---3-3-3-3---3-3-3-3---3-3-|---2-2-2-2---2-2-2-2---2-2----o|| 
|---------------------------|-------------------------------|| 


    PM----------------------------------| 
    S S E S S E S S E S S E   S S E S S E E E Q   4x 
||--------------------------|---------------------|| 
||o-------------------------|--------------------o|| 
||--------------------------|---------------------|| 
||--------------------------|---------------------|| 
||o-------------------------|-------------5-4-5--o|| 
||--1-1-1-1-1-1-1-1-1-1-1-1-|-1-1-1-1-1-1-3-2-3---|| 


  TP         TP         TP         TP         TP         TP 
  W          W          W          W          W          W 
|----------|----------|----------|----------|----------|------| 
|----------|----------|----------|----------|----------|------| 
|----------|----------|----------|----------|----------|------| 
|----------|----------|----------|----------|----------|------| 
|----------|----------|----------|----------|----------|------| 
|-3--------|-3--------|-2--------|-2--------|-1--------|-1----| 


  H    H      H    H 
|-----------|-----------| 
|-----------|-----------| 
|-----------|-----------| 
|-----------|-7----4----| 
|-2----5----|-5----2----| 
|-0----3----|-----------| 


 3:24 
  Q=190 
 6/4 
     PM|    PM|                              PM| 
  Q  E E Q  E E  E   E   E   E    E E E E Q  E E E E Q 
|-------------------------------|----------------------- 
|-------------------------------|----------------------- 
|-------------------------------|----------------------- 
|---------------<5>-------------|-----4-5-7------3S4---- 
|-2------2----------<5>-<7>-----|-----2-3-5------1S2-2-- 
|-0--0-0-0--0-0-------------<7>-|-6S5--------0-0-----0-- 


         PM|     PM|                              PM| 
    +Q   E E E E E E  E   E   E   E    E E E E Q  E E E E Q   3x W. 
||-----------------------------------|------------------------||------- 
||o----------------------------------|-----------------------o||------- 
||-----------------------------------|------------------------||------- 
||-------------------<5>-------------|-----4-5-7------3S4-----||------- 
||o-(2)------8S7---------<5>-<7>-----|-----2-3-5------1S2-2--o||------- 
||--(0)--0-0-6S5-0-0-------------<7>-|-6S5--------0-0-----0---||------- 


     PM|    PM|                              PM| 
  Q  E E Q  E E  E   E   E   E    E E E E Q  E E E E Q 
|-------------------------------|-----------------------| 
|-------------------------------|-----------------------| 
|-------------------------------|-----------------------| 
|---------------<5>-------------|-----4-5-7------3S4----| 
|-2------2----------<5>-<7>-----|-----2-3-5------1S2-2--| 
|-0--0-0-0--0-0-------------<7>-|-6S5--------0-0-----0--| 


                                                                3/4 
         PM|     PM|                              PM| 
    +Q   E E E E E E  E   E   E   E    E E E E Q  E E E E Q   3x H. 
||-----------------------------------|------------------------||------- 
||o----------------------------------|-----------------------o||------- 
||-----------------------------------|------------------------||------- 
||-------------------<5>-------------|-----4-5-7------3S4-----||------- 
||o-(2)------8S7---------<5>-<7>-----|-----2-3-5------1S2-2--o||------- 
||--(0)--0-0-6S5-0-0-------------<7>-|-6S5--------0-0-----0---||------- 


 3:53 
 7/4 
  PM|   PM|   PM|   PM          PM|   PM|   PM|   PM 
  E E E E E E E E E E E E E E   E E E E E E E E E E S S S S S S S S 
|-----------------------------|-------------------------------------- 
|-----------------------------|-------------------------------------- 
|-----------------------------|-------------------------------------- 
|-----------------------------|-------------------------------------- 
|-----7-----8-----7---5S6-5S6-|-----7-----8-----7---1h2p1h2---------- 
|-0-0-5-0-0-6-0-0-5-0-5S6-5S6-|-0-0-5-0-0-6-0-0-5-0---------1h2p1h2-- 


  PM|   PM|   PM|   PM          PM|   PM|   PM| 
  E E E E E E E E E E E E E E   E E E E E E E E Q  H 
|-----------------------------|-------------------------| 
|-----------------------------|-------------------------| 
|-----------------------------|-------------------------| 
|-----------------------------|-------------------------| 
|-----7-----8-----7---5S6-5S6-|-----7-----8-----7-------| 
|-0-0-5-0-0-6-0-0-5-0-5S6-5S6-|-0-0-5-0-0-6-0-0-5-------| 


    PM|   PM|   PM|   PM          PM|   PM|   PM|   PM 
    E E E E E E E E E E E E E E   E E E E E E E E E E S S S S S S S S 
||------------------------------|---------------------------------------|| 
||o-----------------------------|--------------------------------------o|| 
||------------------------------|---------------------------------------|| 
||------------------------------|---------------------------------------|| 
||o-----7-----8-----7---5S6-5S6-|-----7-----8-----7---1h2p1h2----------o|| 
||--0-0-5-0-0-6-0-0-5-0-5S6-5S6-|-0-0-5-0-0-6-0-0-5-0---------1h2p1h2---|| 


    PM--------|   PM----| 
    S S S S S S E S S S S Q  E E E E S S S S  4x 
||--------------------------------------------|| 
||o------------------------------------------o|| 
||--------------------------------------------|| 
||--------------------------------------------|| 
||o-------------9---------8--7S6-9S8-7h8p7h8-o|| 
||--0-0-0-0-0-0-7-0-0-0-0-6--5S4-7S6----------|| 


 4:27 
 6/4 
     PM|    PM|                              PM| 
  Q  E E Q  E E  E   E   E   E    E E E E Q  E E E E Q 
|-------------------------------|-----------------------| 
|-------------------------------|-----------------------| 
|-------------------------------|-----------------------| 
|---------------<5>-------------|-----4-5-7------3S4----| 
|-2------2----------<5>-<7>-----|-----2-3-5------1S2-2--| 
|-0--0-0-0--0-0-------------<7>-|-6S5--------0-0-----0--| 


         PM|     PM|                              PM| 
    +Q   E E E E E E  E   E   E   E    E E E E Q  E E E E Q   3x W. 
||-----------------------------------|------------------------||------- 
||o----------------------------------|-----------------------o||------- 
||-----------------------------------|------------------------||------- 
||-------------------<5>-------------|-----4-5-7------3S4-----||------- 
||o-(2)------8S7---------<5>-<7>-----|-----2-3-5------1S2-2--o||------- 
||--(0)--0-0-6S5-0-0-------------<7>-|-6S5--------0-0-----0---||------- 


   4:41 
    Q=140 
   4/4 
                                       PM-| 
    S S S E E. S S S E E.   S S S E E. E. E E. 
||------------------------|---------------------|| 
||o-----------------------|--------------------o|| 
||------------------------|---------------------|| 
||------------------------|------------4----5---|| 
||o-4S5-4S5-3--4S5-4S5-3--|-4S5-4S5-3--2--7-3--o|| 
||--2S3-2S3-1--2S3-2S3-1--|-2S3-2S3-1-----5-----|| 


                                 PM-| 
    S E E E. S E E E.   S E E E. E. E E. 
||--------------------|-------------------|| 
||o-------------------|------------------o|| 
||--------------------|----------6--7-8---|| 
||--------------------|----------4--5-6---|| 
||o-5S6-5-3--5S6-5-3--|-5S6-5-3----------o|| 
||--3S4-3-1--3S4-3-1--|-3S4-3-1-----------|| 


    S E E E. S E E E.   S E E E. S E E E.  5x 
||--------------------|--------------------|| 
||o-------------------|-------------------o|| 
||--------------------|--------------------|| 
||--------------------|--------------------|| 
||o-7S8-6-5--7S8-6-5--|-7S8-6-5--7S8-6-5--o|| 
||--5S6-4-3--5S6-4-3--|-5S6-4-3--5S6-4-3---|| 


  Q  H. 
|----------*| 
|----------*| 
|----------*| 
|----------*| 
|-2--------*| 
|-0--------*| 



Tablature Legend 
---------------- 
 h   - hammer-on 
 p   - pull-off 
 b   - bend 
 pb  - pre-bend 
 r   - bend release (if no number after the r, then release immediately) 
 /\  - slide into or out of (from/to "nowhere") 
 s   - legato slide 
 S   - shift slide 
  - natural harmonic 
n  - artificial harmonic 
n(n) - tapped harmonic 
 ~   - vibrato 
 tr  - trill 
 T   - tap 
 TP  - trem. picking 
 PM  - palm muting 
\n/  - tremolo bar dip; n = amount to dip 
 \n  - tremolo bar down 
 n/  - tremolo bar up 
/n\  - tremolo bar inverted dip 
 =   - hold bend; also acts as connecting device for hammers/pulls 
 <>  - volume swell (louder/softer) 
 x   - on rhythm slash represents muted slash 
 o   - on rhythm slash represents single note slash 

 
	  

No existe una video leccione para esta canción

request
LosAcordes
Buscar
auto avanzar rasgueos aumentar disminuir cambiar color esconder acordes gráficos
losacordes exhibir acordes losacordes youTube video losacordes ocultar tabs losacordes ir hacia arriba losacordes