Destruction

Início > Destructio... > acordes

Our Oppression Tablatura

Destruction

Dificultad:Ningún gradoNingún grado

joaoewerton

tuner correct add songbook print version text version salvar en e-mail
acordesukuleletablaturabajobateríaarmónicaflautacavacopiano Guitar Pro
acordes

Our Oppression

	  




Gtr I (E A D G B E) - 'Guitar I' 
Gtr II (E A D G B E) - 'Guitar II' 


   Intro 
    Q=260 
   4/4                 6/4 
    Gtrs I, II 
      PM|                 PM| 
                     3x 
||-------------------||-----------------| 
||o-----------------o||-----------------| 
||-------------------||-----------------| 
||-------------------||-----------------| 
||o-----------------o||-----------------| 
||--5-0-0-5p4h5------||-6-0-0-6p5h6-----| 


   0:08 
    Q=266 
       PM|          PM|                    PM|          PM| 
||----------------|-------------------|---------------|--------------------| 
||o---------------|-------------------|---------------|--------------------| 
||----------------|-------------------|---------------|--------------------| 
||----------------|-------------------|---------------|--------------------| 
||o---------------|---------6h7p6-----|---------------|---------0h1p0------| 
||--6--0-0-6p5h6--|-0-0-5h6-------6p0-|-6--0-0-6p5-6--|-0-0-0h3-------3p0--| 


     PM|          PM|                    PM| 
                                                                       4x 
|---------------|-------------------|---------------|------------------|| 
|---------------|-------------------|---------------|-----------------o|| 
|---------------|-------------------|---------------|------------------|| 
|---------------|-------------------|---------------|-------------1p0--|| 
|---------------|---------6h7p6-----|---------------|---------1p0-----o|| 
|-6--0-0-6p5-6--|-0-0-5h6-------6p0-|-7--0-0-7p5-7--|-0-0-0h3----------|| 


 0:38 
  Q=260 
      PM|    PM|       PM|    PM|       PM|    PM| 
|----------------|----------------|----------------|-----------------| 
|----------------|----------------|----------------|-----------------| 
|----------------|----------------|----------------|-----------------| 
|-2S3------------|----------------|-2S3------------|-3p2-------------| 
|-1S2-----2------|-3S4-----0------|-1S2-----2------|-----3p2-3p2-----| 
|-----0-0-3--0-0-|-2S3-0-0-1--0-0-|-----0-0-1--0-0-|-------------3-0-| 


      PM|    PM|       PM|    PM| 
|----------------|----------------|----------------|----------------| 
|----------------|----------------|----------------|----------------| 
|----------------|----------------|----------------|----------------| 
|-2S3------------|-4S5------------|-2h3-----2------|----------------| 
|-1S2-----2------|-3S4-----0------|-2h3-----2------|-----2p1-3p2-1--| 
|-----0-0-3--0-0-|-----0-0-1--0-0-|-1-1-0-0-0--0-0-|-1p0------------| 


 0:45 
  Q=202 
 6/4               5/4             3/4 
     PM|               PM|          PM 
|-----------------|---------------|---------| 
|-----------------|---------------|---------| 
|-----------------|---------------|---------| 
|-9------9--------|-9------9------|---------| 
|-7--9-8-7--------|-7--9-8-7------|-8---8---| 
|----7-6----------|----7-6--------|-6---6---| 


 4/4 
  Gtr I 
     PM|    PM--------|       PM------------| 
|-------------------|-------------------------| 
|-------------------|-------------------------| 
|-------------------|-------------------------| 
|-------------------|-------------------------| 
|-7------7----------|-------7-----------------| 
|----7-6----0-0-0-0-|-0-7-6---6-6-6-6-6-6-6-6-| 
| 
| Gtr II 
|    PM| 
|-------------------|-------------------------| 
|-------------------|-------------------------| 
|-------------------|-------------------------| 
|-9------9----------|-------------------------| 
|-7--9-8-7----------|-------------------------| 
|----7-6------------|-------------------------| 


     PM|    PM--------|       PM------------| 
|-------------------|---------------------------| 
|-------------------|---------------------------| 
|-------------------|---------------------------| 
|-------------------|---------------------------| 
|-7------7----------|-------7-------------------| 
|----7-6----0-0-0-0-|-0-7-6---1-1-1-1-1-1-1-1---| 
| 
|    PM|              PM      PM------------| 
|-------------------|---------------------------| 
|-------------------|---------------------------| 
|-------------------|---------------------------| 
|-9------9----------|---------------------------| 
|-7--9-8-7----------|-------7-------------------| 
|----7-6------------|-0-7-6---1-1-1-1-1-1-1-1---| 


   0:54 / 1:45 
    Q=196 
    $ 
        Gtrs I, II 
    PM--------|     PM------------|   PM--------------- 
||--------------------------|-------------------------| 
||o-------------------------|-------------------------| 
||--------------------------|-------------------------| 
||--------------------------|-------------------------| 
||o-------------7-----------|-------7-----------------| 
||--0-0-0-0-7-6---0-0-0-0-0-|-0-7-6---6-6-6-6-6-6-6-6-| 


 -----------|     PM------------|   PM------------| 
|-------------------------|---------------------------| 
|-------------------------|---------------------------| 
|-------------------------|---------------------------| 
|-------------------------|---------------------------| 
|-------------7-----------|-------7-------------------| 
|-0-0-0-0-7-6---0-0-0-0-0-|-0-7-6---1-1-1-1-1-1-1-1---| 


  PM--------|     PM------------|   PM--------------- 
|-------------------------|-------------------------| 
|-------------------------|-------------------------| 
|-------------------------|-------------------------| 
|-------------------------|-------------------------| 
|-------------7-----------|-------7-----------------| 
|-0-0-0-0-7-6---0-0-0-0-0-|-0-7-6---6-6-6-6-6-6-6-6-| 


 -----------|     PM| 
                                          3x 
|---------------------|-------------------|| 
|---------------------|------------------o|| 
|---------------------|-------------------|| 
|---------------------|-------------------|| 
|-------------7-------|-6-------5--------o|| 
|-0-0-0-0-7-6---0-7-6-|---0-6-5---0-4-----|| 


   1:23 / 2:13 
    Q=260 
        PM|    PM|       PM|    PM|       PM|    PM| 
||-----------------|----------------|----------------|------------------| 
||o----------------|----------------|----------------|------------------| 
||-----------------|----------------|----------------|------------------| 
||--2S3------------|----------------|-2S3------------|-3p2--------------| 
||o-1S2-----2------|-3S4-----0------|-1S2-----2------|-----3p2-3p2------| 
||------0-0-3--0-0-|-2S3-0-0-1--0-0-|-----0-0-1--0-0-|-------------3-0--| 


                                                               D.S. 
      PM|    PM|       PM|    PM| 
                                                                      3x 
|----------------|----------------|----------------|------------------|| 
|----------------|----------------|----------------|-----------------o|| 
|----------------|----------------|----------------|------------------|| 
|-2S3------------|-4S5------------|-2h3-----2------|-------------4p3--|| 
|-1S2-----2------|-3S4-----0------|-2h3-----2------|-----2p1-3p2-----o|| 
|-----0-0-3--0-0-|-----0-0-1--0-0-|-1-1-0-0-0--0-0-|-1p0--------------|| 


 2:36 
  Q=202 
    PM  PM  PM  PM          PM|         PM| 
|-----------------|-------------------------| 
|-----------------|-------------------------| 
|-----------------|-------------------------| 
|-----5-------4---|-3S4---------3S4---------| 
|-4---3---5---2---|-1S2---------1S2---------| 
|-2-0---0-3-0---0-|-----0-0-0-0-----0-0-0-0-| 


    PM  PM  PM  PM------------------| 
|-----------------|--------------------| 
|-----------------|--------------------| 
|-----------------|--------------------| 
|-----5-------4---|--------------------| 
|-4---3---5---2---|--------------------| 
|-2-0---0-3-0---0-|-1-0-0-0-1-0-0-1-0--| 


    PM  PM  PM  PM          PM|         PM| 
|-----------------|-------------------------| 
|-----------------|-------------------------| 
|-----------------|-------------------------| 
|-----5-------4---|-3S4---------3S4---------| 
|-4---3---5---2---|-1S2---------1S2---------| 
|-2-0---0-3-0---0-|-----0-0-0-0-----0-0-0-0-| 


    PM  PM  PM  PM--------------| 
|-----------------|--------------------| 
|-----------------|--------------------| 
|-----------------|--------------------| 
|-----5-------4---|--------------------| 
|-4---3---5---2---|---------------9S8--| 
|-2-0---0-3-0---0-|-0-0-0-1-0-0-0-7S6--| 


   2:45 
      PM----------------| 
                                              3x 
||----------------------------|---------------|| 
||o---------------------------|--------------o|| 
||----------------------------|---------------|| 
||--9-------------------------|-9-------------|| 
||o-7---------------------9-8-|-7--8--8--9-8-o|| 
||----0-0-0-0-0-0-0-0-0-0-7-6-|----6--6--7-6--|| 


    PM----------------| 
|---------------------------|--------------| 
|---------------------------|--------------| 
|---------------------------|--------------| 
|-9-------------------------|-9------------| 
|-7---------------------9-8-|-7--8--8--9---| 
|---0-0-0-0-0-0-0-0-0-0-7-6-|----6--6--7---| 


 2:55 
    PM  PM  PM  PM          PM|         PM| 
|-----------------|-------------------------| 
|-----------------|-------------------------| 
|-----------------|-------------------------| 
|-----5-------4---|-3S4---------3S4---------| 
|-4---3---5---2---|-1S2---------1S2---------| 
|-2-0---0-3-0---0-|-----0-0-0-0-----0-0-0-0-| 


    PM  PM  PM  PM------------------| 
|-----------------|--------------------| 
|-----------------|--------------------| 
|-----------------|--------------------| 
|-----5-------4---|--------------------| 
|-4---3---5---2---|--------------------| 
|-2-0---0-3-0---0-|-1-0-0-0-1-0-0-1-0--| 


    PM  PM  PM  PM          PM|         PM| 
|-----------------|-------------------------| 
|-----------------|-------------------------| 
|-----------------|-------------------------| 
|-----5-------4---|-3S4---------3S4---------| 
|-4---3---5---2---|-1S2---------1S2---------| 
|-2-0---0-3-0---0-|-----0-0-0-0-----0-0-0-0-| 


    PM  PM  PM  PM--------------| 
|-----------------|--------------------| 
|-----------------|--------------------| 
|-----------------|--------------------| 
|-----5-------4---|--------------------| 
|-4---3---5---2---|---------------9S8--| 
|-2-0---0-3-0---0-|-0-0-0-1-0-0-0-7S6--| 


   3:05 
      PM----------------| 
                                              3x 
||----------------------------|---------------||---------------|---------------| 
||o---------------------------|--------------o||---------------|---------------| 
||----------------------------|---------------||---------------|---------------| 
||--9-------------------------|-9-------------||-9------9------|-9------9------| 
||o-7---------------------9-8-|-7--8--8--9-8-o||-7--9-8-7--9-8-|-7--9-8-7--9-8-| 
||----0-0-0-0-0-0-0-0-0-0-7-6-|----6--6--7-6--||----7-6----7-6-|----7-6----7-6-| 


   3:14 
    Q=195 
   5/4 
                                PM|   PM|   PM|     PM---------------| 
                                                                         3x 
||-----------------------|----------------------|------------------------|| 
||o----------------------|----------------------|-----------------------o|| 
||----9---------------10-|-9--------------------|------------------------|| 
||------9-8-7-----9-8----|---10-----9-----8-----|-7----------------------|| 
||o-7---------8-7--------|------9-8-7-9-8-6-8-7-|-5-9-8-9-10-9-8-8-9-8--o|| 
||-----------------------|------7-6---7-6---6-5-|---7-6-7--8-7-6-6-7-6---|| 


 5/4 
                              PM|   PM|   PM|     PM-----------| 
|----------------------|----------------------|--------------------| 
|----------------------|----------------------|--------------------| 
|---9---------------10-|-9--------------------|--------------------| 
|-----9-8-7-----9-8----|---10-----9-----8-----|-7------------------| 
|-7---------8-7--------|------9-8-7-9-8-6-8-7-|-5-9-8-9-10-9-8-8---| 
|----------------------|------7-6---7-6---6-5-|---7-6-7--8-7-6-6---| 


 3:32 
  Q=262 
 4/4 
     PM| 
|---------------|---------|---------|---------|-----| 
|---------------|---------|---------|---------|-----| 
|---------------|---------|---------|---------|-----| 
|---------------|---------|---------|---------|-----| 
|-8------8S7-8--|---------|---------|---------|-----| 
|-6--0-0-6S5-6--|---------|---------|---------|-----| 


   3:37 
    Q=266 
   4/4 
       PM|          PM|                    PM|          PM| 
||----------------|-------------------|---------------|---------------------| 
||o---------------|-------------------|---------------|---------------------| 
||----------------|-------------------|---------------|---------------------| 
||----------------|-------------------|---------------|---------------------| 
||o---------------|---------6h7p6-----|---------------|---------0h1p0-------| 
||--6--0-0-6p5h6--|-0-0-5h6-------6p0-|-6--0-0-6p5-6--|-0-0-0h3-------3p0---| 


     PM|          PM|                    PM| 
|---------------|-------------------|---------------|------------------|| 
|---------------|-------------------|---------------|-----------------o|| 
|---------------|-------------------|---------------|------------------|| 
|---------------|-------------------|---------------|-------------1p0--|| 
|---------------|---------6h7p6-----|---------------|---------1p0-----o|| 
|-6--0-0-6p5-6--|-0-0-5h6-------6p0-|-7--0-0-7p5-7--|-0-0-0h3----------|| 


   3:51 
       PM|                         PM|         PM----| 
||--------------|-------------|--------------|-----------------|| 
||o-------------|-------------|--------------|----------------o|| 
||--------------|-------------|--------------|-----------------|| 
||---------5----|-(5)---------|--------------|-----------------|| 
||o-7------3----|-(3)------3--|-4------4--4--|---------4--5---o|| 
||--5--0-0------|----------1--|-2--2-2-2--2--|-2-2-2-2-2--3----|| 


       PM|                         PM|         PM----| 
||--------------|-------------|--------------|-----------------|| 
||o-------------|-------------|--------------|----------------o|| 
||--------------|-------------|--------------|-----------------|| 
||---------7----|-(7)---------|--------------|-----------------|| 
||o-9------5----|-(5)------6--|-7------7--7--|---------7--8---o|| 
||--7--7-7------|----------4--|-5--5-5-5--5--|-5-5-5-5-5--6----|| 


   4:06 
    Q=255 
        PM|    PM|       PM|    PM|       PM|    PM| 
||-----------------|----------------|----------------|------------------| 
||o----------------|----------------|----------------|------------------| 
||-----------------|----------------|----------------|------------------| 
||--2S3------------|----------------|-2S3------------|-3p2--------------| 
||o-1S2-----2------|-3S4-----0------|-1S2-----2------|-----3p2-3p2------| 
||------0-0-3--0-0-|-2S3-0-0-1--0-0-|-----0-0-1--0-0-|-------------3-0--| 


      PM|    PM|       PM|    PM| 
                                                                      3x 
|----------------|----------------|----------------|------------------|| 
|----------------|----------------|----------------|-----------------o|| 
|----------------|----------------|----------------|------------------|| 
|-2S3------------|-4S5------------|-2h3-----2------|-------------4p3--|| 
|-1S2-----2------|-3S4-----0------|-2h3-----2------|-----2p1-3p2-----o|| 
|-----0-0-3--0-0-|-----0-0-1--0-0-|-1-1-0-0-0--0-0-|-1p0--------------|| 


   4:29 
    Q=201 
      PM  PM  PM  PM          PM|         PM| 
||------------------|-------------------------| 
||o-----------------|-------------------------| 
||------------------|-------------------------| 
||------5-------4---|-3S4---------3S4---------| 
||o-4---3---5---2---|-1S2---------1S2---------| 
||--2-0---0-3-0---0-|-----0-0-0-0-----0-0-0-0-| 


    PM  PM  PM  PM------------------| 
|-----------------|--------------------|| 
|-----------------|-------------------o|| 
|-----------------|--------------------|| 
|-----5-------4---|--------------------|| 
|-4---3---5---2---|-------------------o|| 
|-2-0---0-3-0---0-|-1-0-0-0-1-0-0-1-0--|| 


  Gtr I 
  PM------------------------------------- 
|-------------------|-------------------| 
|-------------------|-------------------| 
|-------------------|-------------------| 
|-------------------|-------------------| 
|-------------------|-3-2-2-2-3-2-2-3-2-| 
|-5-4-4-4-5-4-4-5-4-|-------------------| 
| 
| Gtr II 
| PM------------------------------------- 
|-------------------|-------------------| 
|-------------------|-------------------| 
|-------------------|-------------------| 
|-------------------|-------------------| 
|-------------------|-3-2-2-2-3-2-2-3-2-| 
|-5-4-4-4-5-4-4-5-4-|-------------------| 


 -------------------------------------| 
|-------------------|-------------------| 
|-------------------|-------------------| 
|-------------------|-------------------| 
|-------------------|-------------------| 
|-------------------|-------------------| 
|-1-0-0-0-1-0-0-1-0-|-5-4-4-4-5-4-4-5-4-| 
| 
|-------------------------------------| 
|-------------------|-------------------| 
|-------------------|-------------------| 
|-------------------|-------------------| 
|-------------------|-2-1-1-1-2-1-1-2-1-| 
|-------------------|-------------------| 
|-1-0-0-0-1-0-0-1-0-|-------------------| 


 4/4                 3/4      4/4 
  PM--------------| 
|-------------------|--------|-----------------|--------*| 
|-------------------|--------|-----------------|--------*| 
|-------------------|--------|-----------------|--------*| 
|-------------------|--------|-----------------|--------*| 
|-3-2-2-2-3-2-2-3-2-|-2------|-2-3---2---------|-2------*| 
|-------------------|-0------|-----5---3-5-2-3-|-0------*| 
| 
| PM--------------|            PM------------| 
|-------------------|--------|-----------------|--------*| 
|-------------------|--------|-----------------|--------*| 
|-------------------|--------|-4-5-2-4---2-----|--------*| 
|-5-4-4-4-5-4-4-5-4-|--------|---------5---4-5-|--------*| 
|-------------------|-2------|-----------------|-2------*| 
|-------------------|-0------|-----------------|-0------*| 


Tablature Legend 
---------------- 
 h   - hammer-on 
 p   - pull-off 
 b   - bend 
 pb  - pre-bend 
 r   - bend release (if no number after the r, then release immediately) 
 /\  - slide into or out of (from/to "nowhere") 
 s   - legato slide 
 S   - shift slide 
  - natural harmonic 
n  - artificial harmonic 
n(n) - tapped harmonic 
 ~   - vibrato 
 tr  - trill 
 T   - tap 
 TP  - trem. picking 
 PM  - palm muting 
\n/  - tremolo bar dip; n = amount to dip 
 \n  - tremolo bar down 
 n/  - tremolo bar up 
/n\  - tremolo bar inverted dip 
 =   - hold bend; also acts as connecting device for hammers/pulls 
 <>  - volume swell (louder/softer) 
 x   - on rhythm slash represents muted slash 
 o   - on rhythm slash represents single note slash 
 
	  

No existe una video leccione para esta canción

request
LosAcordes
Buscar
auto avanzar rasgueos aumentar disminuir cambiar color esconder acordes gráficos
losacordes exhibir acordes losacordes youTube video losacordes ocultar tabs losacordes ir hacia arriba losacordes