Def Leppard

Início > Def Leppar... > acordes

Promises Tablatura

Def Leppard

Dificultad:ExpertoExperto

tuner correct add songbook print version text version salvar en e-mail
acordesukuleletablaturabajobateríaarmónicaflautacavacopiano Guitar Pro
acordes

Promises

	  Transcribed by: Robert Karlsson 
Email: [email protected] 
 
There are two ways to play this song. The harder version is the first one, 
and the easier version is the second one.  Enjoy! 
 
-----------------|-----------------|-----------------|-----------------|------ 
-----------------|-----------------|-----------------|-------------7---|------ 
---9-9---8-9-8---|---6-9-----9-----|---7-9---6-9-6---|---7-9-----9---9-|------ 
-9-----9-------9-|-7-----6-9---9-6-|-7-----7-------7-|-7-----6-9-------|------ 
-----------------|-----------------|-----------------|-----------------|------ 
-----------------|-----------------|-----------------|-----------------|------ 
 (1st) Intro/verse                                                             
 
---0-0-----0-----|-----0-----0-----|-----0-----0-----|-----0-----0-2-0-|------ 
---------4---4---|---2-----0---0---|---3-----2---2---|---3-----0-------|------ 
-4-----4-------4-|-2-----1-------1-|-2-----2-------2-|-2-----1---------|------ 
-----------------|-----------------|-----------------|-----------------|------ 
-----------------|-----------------|-----------------|-----------------|------ 
-----------------|-----------------|-----------------|-----------------|------ 
 (2nd) Intro/verse
	  

No existe una video leccione para esta canción

request
LosAcordes
Buscar
auto avanzar rasgueos aumentar disminuir cambiar color esconder acordes gráficos
losacordes exhibir acordes losacordes youTube video losacordes ocultar tabs losacordes ir hacia arriba losacordes