Debbie Reynolds

Início > Debbie Rey... > acordes

Tammy Tablatura

Debbie Reynolds

Dificultad:Ningún gradoNingún grado

aleffederico

tuner correct add songbook print version text version salvar en e-mail
acordesukuleletablaturabajobateríaarmónicaflautacavacopiano Guitar Pro
acordes

Tammy

Tono:  G Más
Tammy Key DD
Tammy Key D#D#
Tammy Key EE
Tammy Key FF(Disminuir uno tono)
Tammy Key F#F#(Disminuir uno semi-tono)
Tammy Key GG(tono original)
Tammy Key G#G#(Aumentar uno semi-tono)
Tammy Key AA(Aumentar uno tono)
Tammy Key A#A#
Tammy Key BB
Tammy Key CC
Tammy Key C#C#
	  

   C      Em       F       C      Em      Am    Dm       G7 

e|-------------------------------------------------------1-------------------| 
B|-----------------1---1---1---------------1-------------0-------------------| 
G|-0---0---0---0---2-2-----0---0---0-------2-------------0-------------------| 
D|-2-2-----2-2-----3-------2-----3-2---2-0-2---0---0---2-0-------------------| 
A|-3-------2---------------3-------2-------------0---------------------------| 
E|---------------------------------------------------------------------------| 

   C      Em       F       C      Em      Am         C       C       F 
e|---------------------------------------------------------------------------| 
B|-------------------------1---------------1---------1-------1-------1-------| 
G|-0---0---0---0---1---1---0---0---0-------2---------0-----0-0-----2-2-------| 
D|-2-2-----2-2-----2-2-----2-----3-2---2-0-2---0-----2-------2-------3-------| 
A|-3-------2-------3-------3-------2-------------0-2-3---3-------3-----------| 
E|---------------------------------------------------------------------------| 

       D7  G   E7        Am      C     G   C      EM       F       C 
e|-----2-------0-----------------------3-------------------------------------| 
B|---1-1---0---1--0--1-0-1-------1-----0-------------------1---1---1---------| 
G|-----2---0---0---------2---0---0-----0---0---0---0---0---2-2-----0---------| 
D|-0---0---0---0---------3-----3-2-----0---2-2-----2-2-----3-------2---------| 
A|-------------------------------3-3-------3-------2---------------3---------| 
E|---------------------------------------------------------------------------| 

       Am      C    G7     C 
e|---------------------------------------------------------------------------| 
B|-2-0-1-------1-----------1-------------------------------------------------| 
G|-----2---0---0-----------0-------------------------------------------------| 
D|-----3-----3-2---3-2-0---2-------------------------------------------------| 
A|-------------3-----------3-------------------------------------------------| 
E|---------------------------------------------------------------------------| 
	  

No existe una video leccione para esta canción

request
Aumentar uno tonoAumentar uno tono
Aumentar uno semi-tonoAumentar uno semi-tono
Disminuir uno semi-tonoDisminuir uno semi-tono
Disminuir uno tonoDisminuir uno semi-tono
LosAcordes
Buscar
auto avanzar rasgueos aumentar disminuir cambiar color esconder acordes gráficos
losacordes exhibir acordes losacordes youTube video losacordes ocultar tabs losacordes ir hacia arriba losacordes