Dean Martin

Início > Dean Marti... > acordes

Let It Snow Tablatura

Dean Martin

Dificultad:ExpertoExperto

jov-correa

tuner correct add songbook print version text version salvar en e-mail
acordesukuleletablaturabajobateríaarmónicaflautacavacopiano Guitar Pro
acordes

Let It Snow

Tono:  C Más
Let It Snow Key GG
Let It Snow Key G#G#
Let It Snow Key AA
Let It Snow Key A#A#(Disminuir uno tono)
Let It Snow Key BB(Disminuir uno semi-tono)
Let It Snow Key CC(tono original)
Let It Snow Key C#C#(Aumentar uno semi-tono)
Let It Snow Key DD(Aumentar uno tono)
Let It Snow Key D#D#
Let It Snow Key EE
Let It Snow Key FF
Let It Snow Key F#F#
	   

VERSE 1                  
|--------|---------|----------|--------|--------|---------|--------|--------| 
|--6---6-|4-3---6--|-------8--|--6----6|--6---6-|4-3---6--|--------|--6--6--| 
|4---4---|----6---5|6---6-6-8-|6---4-6-|4---4---|----6---5|6---6-68|6---4-4-| 
|--------|---------|--6-------|--------|--------|---------|--6-----|--------| 

CHORUS 1                            VERSE 2 
|--------|--------|---------|--------|--------|---------|--------|--------| 
|6---6-77|8---6---|6------3-|----6--6|--6---6-|------6--|--------|--6-----| 
|--6-----|--6---6-|--6543---|--6---6-|4---4---|6-4-3----|6---6-68|6---4---| 
|--------|--------|---------|6-------|--------|--------6|--6-----|--------| 

SOLO                            CHORUS 2                
|------|------|-------|--------|-------------|--------|---------|--------| 
|--6--6|------|-------|--6---6-|6-----6--677-|----6---|6------3-|----6437| 
|4--4--|8-86--|6--6-68|6---4---|---6---------|--6---64|--6-43---|--6-----| 
|------|-----6|--6----|--------|-------------|6-------|---------|6-------| 

OUTRO   
|---------|--------|--------|--------|------7-|--7-----| 
|--7----7-|5-4-2-7-|--------|---7-7-7|7----7--|-7---7--| 
|5---5-5--|--------|--7---7-|787-----|--------|------5-| 
|---------|--------|7---7---|--------|--------|--------|  
	  

No existe una video leccione para esta canción

request
LosAcordes
Buscar
auto avanzar rasgueos aumentar disminuir cambiar color esconder acordes gráficos
losacordes exhibir acordes losacordes youTube video losacordes ocultar tabs losacordes ir hacia arriba losacordes