Dead Kennedys

Início > Dead Kenne... > acordes

We've Got A Bigger Problem Now Tablatura

Dead Kennedys

Dificultad:Ningún gradoNingún grado

tuner correct add songbook print version text version salvar en e-mail
acordesukuleletablaturabajobateríaarmónicaflautacavacopiano Guitar Pro
acordes

We've Got A Bigger Problem Now

	   e|---------------------------------------------------------------------------| 
B|-------------------------------------------5-7-9-7-9-7---------------------| 
G|-9-8--9-8-6---6----------------------------------------9--8-9-8------------| 
D|------------9---9-8-6/8--4/68/6-9-8-6-8/11---------------------------------| 
A|---------------------------------------------------------------------------| 
E|---------------------------------------------------------------------------| 
 
Chords during spoken part(play slight variations of this): 
e|-6-6-66-7-7-hold-7---6-6-66--9--7---7/9--7--------------------------------| 
B|-8-8-88-9-9-hold-9---8-8-88--11-9---9/11-9--------------------------------| 
G|-7-7-77-8-8-hold-8---7-7-77--10-8---8/10-8--------------------------------| 
D|-8-8-88-9-9-hold-9---8-8-88--11-9---9/11-9--------------------------------| 
A|-6-6-66-7-7-hold-7---6-6-66--9--7---7/9--7--------------------------------| 
E|--------------------------------------------------------------------------| 
 
Verse: 
e|-6-6-666-7-x7---9-7-------------------------------------------------------| 
B|-8-8-888-9-x9---119-------------------------------------------------------| 
G|-7-7-777-8-x8---108-------------------------------------------------------| 
D|-8-8-888-9-x9---119-------------------------------------------------------| 
A|-6-6-666-7-x7---9-7-------------------------------------------------------| 
E|--------------------------------------------------------------------------| 
 
one noteable variation in the 1st verse is 
e|-6-6-666-333-443-----------------------------------------------------------| 
B|-8-8-888-555-665-----------------------------------------------------------| 
G|-7-7-777-444-554-----------------------------------------------------------| 
D|-8-8-888-555-665-----------------------------------------------------------| 
A|-6-6-666-333-443-----------------------------------------------------------| 
E|---------------------------------------------------------------------------| 
 
1st pre chorus:    |Chorus:part below followed by the pre chorus progression: 
e|-6-6-666-3-12-9--|-66-6-6--------------------------------------------------| 
B|-8-8-888-5-14-11-|-88-8-8--------------------------------------------------| 
G|-7-7-777-4-13-10-|-77-7-7--------------------------------------------------| 
D|-8-8-888-5-14-11-|-88-8-8--------------------------------------------------| 
A|-6-6-666-3-12-9--|-66-6-6--------------------------------------------------| 
E|-----------------|---------------------------------------------------------| 
 
Distorted verse:           |    Distorted pre chorus:  
e|-------------------------|-------------------------------------------------| 
B|-------------------------|-------------------------------------------------| 
G|-8888-8888-9999-11-9-----|-8888888-666-------------------------------------| 
D|-8888-8888-9999-11-9-----|-8888888-666-------------------------------------| 
A|-6666-6666-7777-9--7-----|-6666666-444-77-4--------------------------------| 
E|-------------------------|-------------55-2--------------------------------| 
 
Distorted chorus:                     |  Final part below: 
e|------------------------------------|--------------------------------------| 
B|------------------------------------|--------------------------------------| 
G|-88---------88888888-14141414141414-|-8-8888-8886-111111111111-6666--------| 
D|-88--14-14--88888888-14141414141414-|-8-8888-8886-111111111111-6666--------| 
A|-66--14-14--66666666-12121212121212-|-6-6666-6664-9-9-9-9-9-9--4444--------| 
E|-----12-12--------------------------|--------------------------------------| 
 
e|---------------------------------------------------------------------------| 
B|---------------------------------------------------------------------------| 
G|-8-8888-8886-111111111111-6666-8-8888-8886-1111111111116666-8-8888---------| 
D|-8-8888-8886-111111111111-6666-8-8888-8886-1111111111116666-8-8888---------| 
A|-6-6666-6664-9-9-9-9-9-9--4444-6-6666-6664-9-9-9-9-9-9-4444-6-6666---------| 
E|---------------------------------------------------------------------------| 
 

	  

No existe una video leccione para esta canción

request
LosAcordes
Buscar
auto avanzar rasgueos aumentar disminuir cambiar color esconder acordes gráficos
losacordes exhibir acordes losacordes youTube video losacordes ocultar tabs losacordes ir hacia arriba losacordes