Dead Kennedys

Início > Dead Kenne... > acordes

Police Truck Tablatura

Dead Kennedys

Dificultad:AdelantadoAdelantado

tuner correct add songbook print version text version salvar en e-mail
acordesukuleletablaturabaixobateríaarmónicaflautacavacopiano Guitar Pro
acordes

Police Truck

	  Intro:
        let ring!!
          /
E|-0-0-0-----|
B|-3-2-1-----|
G|-2-1-0--4--|
D|--------4--|
A|--------2--|
E|-----------|


E|-7-10-9-8-7---8-7-6-5--------|
B|-----------------------------|
G|---------------------7-6-5-4-|
D|-----------------------------|
A|-----------------------------|
E|-----------------------------|

Verse 1: abafado(exceto as notas da E)

E|----------6-6-7-7-|
B|------------------|
G|------------------|
D|------------------|
A|-1-1-1-5----------|
E|-0-0-0-3----------|
  /       
 ( 11 x)

Chorus 1: 

E-----------------------------------------|
B-----------------------------------------|
G---------------------------7-6-5-7-6-5-4-|
D-----------------------------------------|
A-2-2-2-2-2-2-2-2-1-1-1-0-----------------|
E-------------------------3---------------|

E|-----------------------------|
B|-----------------------------|
G|-----------------------------|
D|-----------------------------|
A|-2-2-2-2-2-2-2-2-1-1-1-2-2-2-|
E|-----------------------------|

Verse 2:

E|----------7-7-6-6-|
B|------------------|
G|------------------|
D|------------------|
A|-1-1-1-5----------|
E|-0-0-0-3----------|

Chorus 2:


E-----------------------------------------|
B-----------------------------------------|
G-----------------------------------------|
D--------------------------7^-7^-5--------|
A-2-2-2-2-2-2-2-2-1-1-1-0----------7------|
E-------------------------3---------------|

Verse 3:

E|----------3-3-4-4-|
B|------------------|
G|------------------|
D|------------------|
A|-1-1-1-5----------|
E|-0-0-0-3----------|

Chorus 3:

E------------------------------------------|
B------------------------------------------|
G------------------------------------------|
D------------------------------------------|
A-2-2-2-2-2-2-2-2-1-1-1-0------------------|
E-------------------------3--0-0-3-0-0-0-3-|
                            /             
                           (    3 x        )

E---------------------------|
B---------------------------|
G---------------------------|       3x
D---------------------------|
A-2-2-2-2-2-2-2-2-1-1-1-0---|
E-------------------------3-|
           

Solo:

E-----------------|
B-----------------|
G-----------------|   4x
D-----------------|
A-7-7-6-6-5-5-6-6-|
E-----------------|
      

E-7-6-7-6-7-6-7-6-10-9-10-9-10-9-10-9-12-11-12-11-12-11-12-11-|
B-------------------------------------------------------------|
G-------------------------------------------------------------|
D-------------------------------------------------------------|
A-------------------------------------------------------------|
E-------------------------------------------------------------|

                                                     2x / 
E-5-4-5-4-5-4-5-4-7-6-7-6-7-6-7-6-10-9-10-9-10-9-10-9 12-11-...----|
B------------------------------------------------------------------|
G------------------------------------------------------------------|
D------------------------------------------------------------------|
A------------------------------------------------------------------|
E------------------------------------------------------------------|

Verse 4:

E|----------7-7-6-6-|
B|------------------|
G|------------------|
D|------------------|
A|-1-1-1-5----------|
E|-0-0-0-3----------|

E|----------6-6-7-7-|
B|------------------|
G|------------------|
D|------------------|
A|-1-1-1-5----------|
E|-0-0-0-3----------|

Chorus 4:

E-----------------------------------------|
B-----------------------------------------|
G---------------------------7-6-5-7-6-5-4-|
D-----------------------------------------|
A-2-2-2-2-2-2-2-2-1-1-1-0-----------------|
E-------------------------3---------------|

E------------------------------------------|
B------------------------------------------|
G------------------------------------------| 2x
D------------------------------------------|
A-2-2-2-2-2-2-2-2-1-1-1-0------------------|
E-------------------------3--0-0-3-0-0-0-3-|
             


E---------------------------|
B---------------------------|
G---------------------------|        2x
D---------------------------|   
A-2-2-2-2-2-2-2-2-1-1-1-0---|
E-------------------------3-|

E|---------------|
B|---------------|
G|---------------|   2x
D|-------------2-|
A|-2-2-2-2-1-1---|
E|---------------|
  
Verse 5:

E-----------------------------------------|
B-----------------------------------------|
G---------------------------7-6-5-7-6-5-4-|
D-----------------------------------------|
A-2-2-2-2-2-2-2-2-1-1-1-0-----------------|
E-------------------------3---------------|

E|-----------------------------10-9-8-10-9-8-7-|
B|---------------------------------------------|
G|---------------------------------------------|
D|---------------------------------------------|
A|-2-2-2-2-2-2-2-2-1-1-1-2-2-2-----------------|
E|---------------------------------------------|


final...

E|---|
B|---|
G|---|
D|-2-|
A|-2-|
E|-0-|

let ring!!! :)

_______________________________________________________
Contribuição: Leandro de Castro Santiago([email protected])
	  

No existe una video leccione para esta canción

request
LosAcordes
Buscar
auto avanzar rasgueos aumentar disminuir cambiar color esconder acordes gráficos
losacordes exhibir acordes losacordes youTube video losacordes ocultar tabs losacordes ir hacia arriba losacordes