Dead Kennedys

Início > Dead Kenne... > acordes

Nazi Punks Off Tablatura

Dead Kennedys

Dificultad:Ningún gradoNingún grado

tuner correct add songbook print version text version salvar en e-mail
acordesukuleletablaturabaixobateríaarmónicaflautacavacopiano Guitar Pro
acordes

Nazi Punks Off

	  Tab: ChaoticGuitarSolo 
 
It goes really fast !!!!! :-P have fun this was a blast to tab... not!! 
Tempo: 320 
 
Repeat x2: 
 
   Db                             Bb 
e|------------------------|------------------------| 
B|------------------------|------------------------| 
G|-10----10----10----10---|-10----7--7--------7--5-| 
D|-11----11----11----11---|-11----8--8--------8--6-| 
A|-11----11----11----11---|-11----8--8--------8--6-| 
E|-9-----9-----9-----9----|-9-----6--6--------6--4-| 
   ^  .  ^  .  ^  .  ^  .   ^  .  ^  .  ^  .  ^  . 
                                              (sl)  
   Ab                             Bb 
e|------------------------|------------------------| 
B|------------------------|------------------------| 
G|-5-----5-----5-----5----|-5-----7--7--------7----| 
D|-6-----6-----6-----6----|-6-----8--8--------8----| 
A|-6-----6-----6-----6----|-6-----8--8--------8----| 
E|-4-----4-----4-----4----|-4-----6--6--------6----| 
   ^  .  ^  .  ^  .  ^  .   ^  .  ^  .  ^  .  ^  .   
 
 
 
Then repeat x2: 
 
   Ab    Bb                 Ab    Bb 
e|------------------------|------------------------| 
B|------------------------|------------------------| 
G|-5-----7--7--------x----|-5-----7--7--------x----| 
D|-6-----8--8--------x----|-6-----8--8--------x----| 
A|-6-----8--8--------x----|-6-----8--8--------x----| 
E|-4-----6--6--------x----|-4-----6--6--------x----| 
   ^  .  ^  .  ^  .  ^  .   ^  .  ^  .  ^  .  ^  .   
 
   Ab    Bb                 Db 
e|------------------------|------------------------| 
B|------------------------|------------------------| 
G|-5-----7--7--------x----|-10----10-10-10----10---| 
D|-6-----8--8--------x----|-11----11-11-11----11---| 
A|-6-----8--8--------x----|-11----11-11-11----11---| 
E|-4-----6--6--------x----|-9-----9--9--9-----9----| 
   ^  .  ^  .  ^  .  ^  .   ^  .  ^  .  ^  .  ^  . 
 

	  

No existe una video leccione para esta canción

request
Aumentar uno tonoAumentar uno tono
Aumentar uno semi-tonoAumentar uno semi-tono
Disminuir uno semi-tonoDisminuir uno semi-tono
Disminuir uno tonoDisminuir uno semi-tono
LosAcordes
Buscar
auto avanzar rasgueos aumentar disminuir cambiar color esconder acordes gráficos
losacordes exhibir acordes losacordes youTube video losacordes ocultar tabs losacordes ir hacia arriba losacordes