Dead Kennedys

Início > Dead Kenne... > acordes

Moral Majority Tablatura

Dead Kennedys

Dificultad:Ningún gradoNingún grado

tuner correct add songbook print version text version salvar en e-mail
acordesukuleletablaturabaixobateríaarmónicaflautacavacopiano Guitar Pro
acordes

Moral Majority

	  moral majority 
 
 
dead kennedys 
 
 
TABBED BY RUDY GUZMAN 
 
 
[email protected] 
 
 
e--3-------3------2---3--|  
B--3-------3------3---3--|  
G--0-------0------2---0--|  
D--0-------0------0---0--|  
A--2-------2----------2--|  
E--3-------3----------3--| 
 
e--3-------3-------3-----2---3--|  
B--3-------3-------3-----3---3--|  
G--0-------0-------0-----2---0--|  
D--0-------0-------0-----0---0--|  
A--2-------2-------2---------2--|  
E--3-------3-------3---------3--| 
 
verse 
repeat 
e--3-------3-------3-----2---3--|  
B--3-------3-------3-----3---3--|  
G--0-------0-------0-----2---0--|  
D--0-------0-------0-----0---0--|  
A--2-------2-------2---------2--|  
E--3-------3-------3---------3--| 
 
2 times 
e---2---3--|  
B---3---3--|  
G---2---0--|  
D---0---0--|  
A-------2--|  
E-------3--| 
 
 
e--3------------------------3--|  
B--3------------------------3--|  
G--0-------0-------5---7----0--|  
D--0-------0-------5---7----0--|  
A--2-------2-------3---5----2--|  
E--3-------3----------------3--| 
 
fdbk 
moral majority!! 1 2 3 
 
3 times 
e--------------------|  
B--------------------|  
G--------------------|  
D-5-5--8-8--7--6-6-6-|  
A-5-5--8-8--7--6-6-6-|  
E-3-3--6-6--5--4-4-4-| 
 
 
e--------------|  
B--------------|  
G--------------|  
D-5-----5-5-5--|  
A-5-----5-5-5--|  
E-3-----3-3-3--| 
 
3 times 
e--------------------|  
B--------------------|  
G--------------------|  
D-5-5--8-8--7--6-6-6-|  
A-5-5--8-8--7--6-6-6-|  
E-3-3--6-6--5--4-4-4-| 
 
 
e--------------|  
B--------------|  
G--------------|  
D-5-----5-5-5--|  
A-5-----5-5-5--|  
E-3-----3-3-3--| 
 
3 times 
e----------------------------|  
B----------------------------|  
G----------------------------|  
D--7-7--10-12--13--12-12-12--|  
A--7-7--10-12--13--12-12-12--|  
E--5-5--8--10--11--10-10-10--| 
 
2 times 
e--------------------------|  
B--------------------------|  
G--------------------------|  
D-12-13-12-13-12--10-10-10-|  
A-12-13-12-13-12--10-10-10-|  
E-10-11-10-11-10--8--8--8--|   
 
3 times 
e--------------------|  
B--------------------|  
G--------------------|  
D-5-5--8-8--7--6-6-6-|  
A-5-5--8-8--7--6-6-6-|  
E-3-3--6-6--5--4-4-4-| 
 
e---------------|  
B---------------|  
G---------------|  
D-5--5---5-5-5--|  
A-5--5---5-5-5--|  
E-3--3---3-3-3--| 
 
3 times 
e----------------------------|  
B----------------------------|  
G----------------------------|  
D--7-7--10-12--13--12-12-12--|  
A--7-7--10-12--13--12-12-12--|  
E--5-5--8--10--11--10-10-10--| 
 
 
e--------------------------|  
B--------------------------|  
G--------------------------|  
D-12-13-12-13-12--10-10-10-|  
A-12-13-12-13-12--10-10-10-|  
E-10-11-10-11-10--8--8--8--| 
 
e-------------------------------------------------------------------------|  
B-------------------------------------------------------------------------|  
G-------------------------------------------------------------------------|  
D-------------------------------------------------------------------------|  
A-14-14-14-12-12-12--14-14-14-12-12-12--14-14-14-12-12-12--14-12-14-12-14-|  
E-12-12-12-10-10-10--12-12-12-10-10-10--12-12-12-10-10-10--12-10-12-10-12-| 
 
3 times 
e--------------------|  
B--------------------|  
G--------------------|  
D-5-5--8-8--7--6-6-6-|  
A-5-5--8-8--7--6-6-6-|  
E-3-3--6-6--5--4-4-4-| 
 
e---------------|  
B---------------|  
G---------------|  
D-5--5---5-5-5--|  
A-5--5---5-5-5--|  
E-3--3---3-3-3--| 
 
3 times 
e----------------------------|  
B----------------------------|  
G----------------------------|  
D--7-7--10-12--13--12-12-12--|  
A--7-7--10-12--13--12-12-12--|  
E--5-5--8--10--11--10-10-10--| 
 
 2 times 
e--------------------------|  
B--------------------------|  
G--------------------------|  
D-12-13-12-13-12--10-10-10-|  
A-12-13-12-13-12--10-10-10-|  
E-10-11-10-11-10--8--8--8--| 
 
e-------------------------------------------------------------------------|  
B-------------------------------------------------------------------------|  
G-------------------------------------------------------------------------|  
D-------------------------------------------------------------------------|  
A-14-14-14-12-12-12--14-14-14-12-12-12--14-14-14-12-12-12--14-12-14-12-14-|  
E-12-12-12-10-10-10--12-12-12-10-10-10--12-12-12-10-10-10--12-10-12-10-12-| 
 
 repeat 
e--------------------------|  
B--------------------------|  
G--------------------------|  
D-12-13-12-13-12--10-10-10-|  
A-12-13-12-13-12--10-10-10-|  
E-10-11-10-11-10--8--8--8--| 
 
2 times 
e---------------|  
B---------------|  
G--6--6--6-6-6--|  
D--7--7--7-7-7--|  
A--7--7--7-7-7--|  
E--5--5--5-5-5--| 
 

	  

No existe una video leccione para esta canción

request
LosAcordes
Buscar
auto avanzar rasgueos aumentar disminuir cambiar color esconder acordes gráficos
losacordes exhibir acordes losacordes youTube video losacordes ocultar tabs losacordes ir hacia arriba losacordes