Dead Kennedys

Início > Dead Kenne... > acordes

Halloween Tablatura

Dead Kennedys

Dificultad:Ningún gradoNingún grado

tuner correct add songbook print version text version salvar en e-mail
acordesukuleletablaturabaixobateríaarmónicaflautacavacopiano Guitar Pro
acordes

Halloween

	   Dead Kennedys - Halloween 
 
(Jello Biafra) 
 
Tabbed By Peter J. P. 
[email protected] 
 
I'll have the song order and the rest of the song up soon... 
 
 
Riff 1: 
 
e----------------- 
b----------------- 
g---8--8---------- 
d---8--8---------- 
a---6--6---5-6---- 
e----------------- 
 
 
Riff 2: 
 
e----------------- 
b----------------- 
g----------------- 
d----------------- 
a----------------- 
e----0-1--3-3----- 
 
 
Riff 3: 
 
e----------------- 
b----------------- 
g--10-10---------- 
d--10-10---------- 
a---8--8---7-8---- 
e----------------- 
 

	  

No existe una video leccione para esta canción

request
LosAcordes
Buscar
auto avanzar rasgueos aumentar disminuir cambiar color esconder acordes gráficos
losacordes exhibir acordes losacordes youTube video losacordes ocultar tabs losacordes ir hacia arriba losacordes