Dead Kennedys

Início > Dead Kenne... > acordes

Bleed For Tablatura

Dead Kennedys

Dificultad:Ningún gradoNingún grado

tuner correct add songbook print version text version salvar en e-mail
acordesukuleletablaturabajobateríaarmónicaflautacavacopiano Guitar Pro
acordes

Bleed For

	  TABBED BY [email protected] 
EASY AND FUN TO TAB 
        !!!!!PLEASE RATE THIS TAB!!!!! 
/ MEANS SLIDE 
P MEANS PULL OF 
H MEANS HAMMER ON 
T MEANS TREMMELO (STRUM THAT NOTE UP AND DOWN FAST) 
 
 
INTRO 
E---------------------------------------------------------------} 
B--------5----5--5--5-----------------------5--5-----5---5------} 
G-8--8-----------------8---8---8---8---8--------------------8---} 
D---------------------------------------------------------------} 
A---------------------------------------------------------------} 
E---------------------------------------------------------------} 
 
REAPET 2X 
E---------10-12---------} 
B---11-12-------10-11---} 
G-9---------------------} 
D-----------------------} 
A-----------------------} 
E-----------------------} 
 
REAPET 4X               DO THIS 2X              THEN THIS 1X 
E-------------------}-----0-3-5-6T-5-6-5-6---}----------0-2---} 
B-------------------}------------------------}----------------} 
G-------------------}------------------------}----------------} 
D---------2P0-------}------------------------}----------------} 
A-----0H2-----0H2---}------------------------}----------------} 
E-0H3---------------}------------------------}----------------} 
 
E-9--7--9--7--9--7--9---} 
B-9--7--9--7--9--7--9---} 
G-9--7--9--7--9--7--9---} 
D-9--7--9--7--9--7--9---} 
A-7--5--7--5--7--5--7---} 
E-----------------------} 
 
VERSE 
"YOUVE BEEN HANGING AROUND" 
E-9---7---9---7---} 
B-9---7---9---7---} 
G-9---7---9---7---} 
D-9---7---9---7---} 
A-7---5---7---5---} 
E-----------------} 
 
"COME WITH ME" 
E-0-3-5-6--0-3-5-6--0-3-5-6--0-3-5-6---} 
B-0-3-5-6--0-3-5-6--0-3-5-6--0-3-5-6---} 
G-1-4-6-7--1-4-6-7--1-4-6-7--1-4-6-7---} 
D-2-5-7-8--2-5-7-8--2-5-7-8--2-5-7-8---} 
A-2-5-7-8--2-5-7-8--2-5-7-8--2-5-7-8---} 
E-0-3-5-6--0-3-5-6--0-3-5-6--0-3-5-6---} 
 
CHORUS 
"COME ON BLEED (REAPET AS NEEDED) 
E-18-18/19/18---} 
B-17-17/18-17---} 
G---------------} 
D---------------} 
A---------------} 
E---------------} 
  
"BLEED FOR ME" 
E-17-17-17-17-17-17-17-18---} 
B-16-16-16-16-16-16-16-17---} 
G---------------------------} 
D---------------------------} 
A---------------------------} 
E---------------------------} 
 
AFTER CHORUS 
REAPET 2X      THEN DO THIS 1X 
E-9-8-7-6---}-----9-8-7-6-5-4-3---} 
B-9-8-7-6---}-----9-8-7-6-5-4-3---} 
G-9-8-7-6---}-----9-8-7-6-5-4-3---} 
D-9-8-7-6---}-----9-8-7-6-5-4-3---} 
A-7-6-5-4---}-----9-8-7-6-5-4-3---} 
E-----------}---------------------} 
 
BRIDGE( FOR THE BRIDGE WHICH IS VERY LONG JUST FIGURE HOW MANY TIME TO REAPET EACH PART) 
  
E-9--9--8--8--7--7---} 
B-9--9--8--8--7--7---} 
G-9--9--8--8--7--7---} 
D-9--9--8--8--7--7---} 
A-7--7--6--6--5--5---} 
E--------------------} 
 
PALM MUTE    DONT PALM MUTE           DONT P.M      PALM MUTE   DONT PALM MUTE 
PART ONE      PART 2                   PART 3        PART 3     PART 3 
E---------}---9-9-9--7-7-7---}-------}------------}---------}----------------} 
B---------}---9-9-9--7-7-7---}-------}------------}---------}----------------} 
G---------}---9-9-9--7-7-7---}-------}------------}PM THIS--}----------------} 
D---------}---9-9-9--7-7-7---}PART 1-}------------}TIME-----}DONT PALM MUTE--} 
A-3-3-1---}---7-7-7--5-5-5---}-------}---0-3-2----}PART 3---}PART 3----------} 
E---------}------------------}-------}------------}---------}----------------} 
 
                                                                                     E-----------}----------}---------}--------}-------}                                  B-----------}----------}---------}--------}-------}------- 
G-----------}----------}---------}PART 2--}PART 1-}PART 2-- 
D-PALM MUTE-}----------}--PART 1-}--------}-------}-------- 
A-PART 3 ---}----------}---------}--------}-------}-------- 
E-----------}---PART 2-}---------}--------}-------}--------- 
          
BACK TO VERSE 
THEN CHORUS 
 
 JUST FIGURE OUT HOW MANY TIME TO REAPET EACH PART FOR THE BRIDGE AND YOU'RE GOOD TO GO 
 

	  

No existe una video leccione para esta canción

request
LosAcordes
Buscar
auto avanzar rasgueos aumentar disminuir cambiar color esconder acordes gráficos
losacordes exhibir acordes losacordes youTube video losacordes ocultar tabs losacordes ir hacia arriba losacordes