De La Tierra

Início > De La Tier... > acordes

Maldita Historia Tablatura

De La Tierra

Dificultad:ExpertoExperto

renejunior

tuner correct add songbook print version text version salvar en e-mail
acordesukuleletablaturabajobateríaarmónicaflautacavacopiano Guitar Pro
acordes

Maldita Historia

	  
 - Riff A (00:10") 

 E |-------------------------------------------------------------| 
 B |-------------------------------------------------------------| 
 G |-------------------------------------------------------------| 
 D |-------------------------------------------------------------| 
 A |-------------------------------------------------------------| 
 E |---------------------------------------------------------1-1-| 
 A |-1-1-1-1-1-1--2-2--1-2-3--2-2--1-2-3--2-2--1-2-3--2-2--2-----| 

    pm--------- 

 E |--------------------------------------------------------| 
 B |--------------------------------------------------------| 
 G |--------------------------------------------------------| 
 D |--------------------------------------------------------| 
 A |--------------------------------------------------------| 
 E |--------------------------------------------------------| 
 A |-2-2--1-2-3--2-2--1-2-3--2-2--1-2-3--1-1-1-1-1-1-1-1----|  x2 
  
                                         pm------------- 



 - Riff B (00:34") 

 E |--------------------------------------------------------------------|  
 B |--------------------------------------------------------------------| 
 G |--------------------------------------------------------------------| 
 D |--------------------------------------------------------------------| 
 A |------------------------------------------------------------6-6-6-6-| 
 E |------------------------------------------------------------4-4-4-4-| 
 A |-3-5-3-5-3-5-6-5--3-5-3-5-3-5-6-5--3-5-3-5-3-5-6-5--3-5-3-5---------|  

                                                                           x2 


 - Estrofa/Verse: (Riff C) (00:45") 

E |---------------------------------------------| 
B |---------------------------------------------| 
G |---------------------------------------------| 
D |---------------------------------------------| 
A |---------------------------------------------| 
E |---------------------------------------------| 
A |-5-5-5-5-5-5-5-5-5-5-5-5-5-5-5-5-2-2-2-2-2-2-|  x2 
   
  pm------------------------------------------- 




 - Riff D: (00:56") 

 E |-------------------------------------------------------------------| 
 B |-------------------------------------------------------------------| 
 G |-------------------------------------------------------------------| 
 D |-------------------------------------------------------------------| 
 A |-3-5-3-5-3-5-6-5--3-5-3-5-3-5-6-5--3-5-3-5-3-5-6-5-3-5-3-5-6-6-6-6-| 
 E |-----------------------------------------------------------4-4-4-4-|  x2 
 A |-------------------------------------------------------------------| 




 - (Riff C) (1:07") x2 

  


 - Estribillo/Chorus: (1:19") 

 E |--------------------------------------------------------------| 
 B |--------------------------------------------------------------| 
 G |--------------------------------------------------------------| 
 D |8-8-8-8-8-8-8-8-8-8-8-8---7-7-7-7-7-7-7--5-5-5-5-5-5----------| 
 A |8-8-8-8-8-8-8-8-8-8-8-8---5-5-5-5-5-5-5--3-3-3-3-3-3--7-7-7-7-| 
 E |6-6-6-6-6-6-6-6-6-6-6-6---5-5-5-5-5-5-5--1-1-1-1-1-1----------| 
 A |--------------------------5-5-5-5-5-5-5-----------------------| 



 E |--------------------------------------------------------------| 
 B |--------------------------------------------------------------| 
 G |--------------------------------------------------------------| 
 D |8-8-8-8-8-8-8-8-8-8-8-8---7-7-7-7-7-7-7--5-5-5-5-5-5----------| 
 A |8-8-8-8-8-8-8-8-8-8-8-8---5-5-5-5-5-5-5--3-3-3-3-3-3--7-7-7-7-| 
 E |6-6-6-6-6-6-6-6-6-6-6-6---5-5-5-5-5-5-5--1-1-1-1-1-1----------| 
 A |--------------------------5-5-5-5-5-5-5-----------------------| 


                              
 E |-----------------------------------| 
 B |-----------------------------------| 
 G |-----------------------------------| 
 D |8-8-8-8-8-8-8---6-6-6-6--2-2-2-2---| 
 A |8-8-8-8-8-8-8---6-6-6-6--2-2-2-2---| 
 E |6-6-6-6-6-6-6---4-4-4-4--0-0-0-0---| 
 A |-----------------------------------| 



                                Fin de Estribillo  


- (1:47") 

 E |--------------------------------------------------| 
 B |--------------------------------------------------| 
 G |-------------------------------------------------º| 
 D |-12-12-12-12-12-12-12-12-12-12-12-12-12-12-12-12--| 
 A |-12-12-12-12-12-12-12-12-12-12-12-12-12-12-12-12-º| 
 E |-10-10-10-10-10-10-10-10-10-10-10-10-10-10-10-10--| 
 A |--------------------------------------------------| 


 - Repite Estrofa/Repear Verse: (Riff C) (1:52") x4 


 - Repite Estribillo/Repeat Verse: (2:15") 


 - Repite Riff A (2:43") 


 - Solo: (2:49") 

 E |------------------------------------------------------| 
 B |---19~~---19-16-16-19-19~~--19-16-16-19-19b(21)b19~~~-| 
 G |------------------------------------------------------| 
 D |------------------------------------------------------| 
 A |------------------------------------------------------| 
 E |------------------------------------------------------| 
 A |------------------------------------------------------| 

 E |---------------------------------------------------------| 
 B |------10-13~---10----13~---10----13--10----13--10----13~~| 
 G |--/11-------------11----------11--------11--------11-----| 
 D |---------------------------------------------------------| 
 A |---------------------------------------------------------| 
 E |---------------------------------------------------------| 
 A |---------------------------------------------------------| 


 E |------------------------------------------------------| 
 B |--10----13p10--------10-13p10---------10-13p10--------| 
 G |-----11------11---11----------11---11----------11~~~--| 
 D |----------------13--------------13--------------------| 
 A |------------------------------------------------------| 
 E |------------------------------------------------------| 
 A |------------------------------------------------------| 

 E |------------------------------------------------------| 
 B |--/12~~--10-12-12b(13)b12--10-12-10h12p10-\8-10-8-7-8-| 
 G |------------------------------------------------------| 
 D |------------------------------------------------------| 
 A |------------------------------------------------------| 
 E |------------------------------------------------------| 
 A |------------------------------------------------------| 


 E |------------------------------------------| 
 B |--7h8p7-\5-7--4-5-7-8--/10-8-7------------| 
 G |-------------------------------9-8~~~~----| 
 D |------------------------------------------| 
 A |------------------------------------------| 
 E |------------------------------------------| 
 A |------------------------------------------| 


 E |------------------------------------| 
 B |------------------------------------| 
 G |---/8~~-----------------------------| 
 D |-------10-9~~-7-9-7h9p7-\5-4-\2~~---| 
 A |------------------------------------| 
 E |------------------------------------| 
 A |------------------------------------| 


 E |-------------------------------------------| 
 B |-------------------------------------------| 
 G |-------------------------------------------| 
 D |-------------------------------------------| 
 A |--7h9p7-\6-7-6-\3-6-3h6p3-2-0-2ah~~~~------| 
 E |-------------------------------------------| 
 A |-------------------------------------------| 




- Riff E (3:12") 

 E |---------------------------------------------------------| 
 B |---------------------------------------------------------| 
 G |---------------------------------------------------------| 
 D |---------------------------------------------------------| 
 A |--------------------------------------------------3--1---| 
 E |--------------------------------------------------3--1---| 
 A |-2-2-2-2--1-2-3--2-2-2-2--1-2-3--2-2-2-2--1-2-3---3--1---| 



- Riff F 

 E |-----------------------------------------------------------| 
 B |-----------------------------------------------------------| 
 G |-----------------------------------------------------------| 
 D |-----------------------------------------------------------| 
 A |-------------------------------------------------2-3-3-1---| 
 E |-------------------------------------------------2-3-3-1---| 
 A |-2-2-2-2--1-2-3--2-2-2-2--1-2-3--2-2-2-2--1-2-3--2-3-3-1---| 



- Repite Riff E (3:23") x8 


 Fin/End 


~ = vibrato 
b = bend 
/ = slide up 
\ = slide down 
p = pull off 
h = hammer on 
ah = artificial harmonic 
pm = palm mute 

 
	  

No existe una video leccione para esta canción

request
Aumentar uno tonoAumentar uno tono
Aumentar uno semi-tonoAumentar uno semi-tono
Disminuir uno semi-tonoDisminuir uno semi-tono
Disminuir uno tonoDisminuir uno semi-tono
LosAcordes
Buscar
auto avanzar rasgueos aumentar disminuir cambiar color esconder acordes gráficos
losacordes exhibir acordes losacordes youTube video losacordes ocultar tabs losacordes ir hacia arriba losacordes