David Gilmour

Início > David Gilm... > acordes

Shine On You Crazy Diamond Tablatura

David Gilmour

Dificultad:PrincipiantePrincipiante

aleffederico

tuner correct add songbook print version text version salvar en e-mail
acordesukuleletablaturabajobateríaarmónicaflautacavacopiano Guitar Pro
acordes

Shine On You Crazy Diamond

	  


e|------0--0-0-----0-------------0--(12)--10p7p0-7~-| 
B|------0--0---3/5---------------0--(12)------------| 
G|------x--0---------3p2p0-------0------------------| 
D|------2--2---------------2-----2------------------| 
A|-----2---2---------------------2------------------| 
E|----0----0-------------------0-0------------------| 

e|-10p7p0-9p5p0-5~--------------------------0-------| 
B|------------------------------------------0-------| 
G|---------------------0-2b3r2--------------x-------| 
D|-------------------2--------2-0-----------2-------| 
A|--------------------------------2-0-------2-------| 
E|------------------------------------3b-0--0-------| 

e|-0-0----------0---(12)----------------------------| 
B|-0-0--3b(3/4)-----(12)----------------------------| 
G|-x-x--------------------------------------2/3\2-0-| 
D|-2-2-------------------------2-5-2-------2--------| 
A|-2-2---------------------3/5-------5-2-5----------| 
E|-0-0-------------0-----0--------------------------| 

e|-----------------------------------------0-0--0---| 
B|-----------------------------------------0-0----3-| 
G|-7---7--7-9------------------------------0-0------| 
D|---9--------7h5--------------------------2-2------| 
A|----------------7-7~----/2-5b-2-0----0---2-2------| 
E|----------------------------------3b---0-0-0------| 

e|----0--3-----3-3-3------3-------------------------| 
B|-3b----3-----3-3-3---6b---6h3---------------------| 
G|-------3-----3-3-3------------5-3--5-3-5b-3---5-3-| 
D|-------5-----5-5-5--------------------------5-----| 
A|-------5-----5-5-5--------------------------------| 
E|--------------------------------------------------| 
               ^ v ^ 

e|--------------------------------------------------| 
B|--------------------------------------------------| 
G|-------3------------------------------------------| 
D|-5-3-5---5~---------------------------------------| 
A|--------------------------------------------------| 
E|--------------------------------------------------| 

e|-3-3-3--------------------------------------------| 
B|-3-3-3---------11b-13b-11----13--11b-13-13-13b-11-| 
G|-3-3-3---12-12------------12---12-----------------| 
D|-5-5-5--------------------------------------------| 
A|-5-5-5--------------------------------------------| 
E|--------------------------------------------------| 
   ^ v ^ 

e|--------------------------------------------------| 
B|-13~--------11b-----------------------------------| 
G|------12-12-----12-12----10-----------------------| 
D|----------------------12------12\10----10---------| 
A|------------------------------------10----13-10---| 
E|--------------------------------------------------| 

e|--------------3-3-3-------------------------------| 
B|--------------3-3-3---13b(15)-15-15~-13-13-13b(15)| 
G|--------------3-3-3-------------------------------| 
D|--------------5-5-5-------------------------------| 
A|--------------5-5-5-------------------------------| 
E|--10\8-6-3~---------------------------------------| 
    
e|--------------------------------------------------| 
B|-------------11-13-13b-(15)-(15~)-11-13-13b--15~--| 
G|-------10-12--------------------------------------| 
D|-10/12--------------------------------------------| 
A|--------------------------------------------------| 
E|--------------------------------------------------| 

e|---------------10---------------------------------| 
B|----13b-11-13--10----13b-15--10-11-13----11----10-| 
G|-12------------10---------------------------12----| 
D|---------------12---------------------------------| 
A|--------------------------------------------------| 
E|--------------------------------------------------| 

e|----------------------------------------8---------| 
B|-------------------------10-10-11/13\---8---------| 
G|--10------10----10-------12-------------8---------| 
D|-----12---10-10----12~------------------10--------| 
A|----------------------------------------10--------| 
E|--------------------------------------------------| 

e|--------------------------------------------------| 
B|-11-8---------------------------------------------| 
G|------10b---------8----10b-8----------------------| 
D|------------10-10---10-------10~------------------| 
A|----------------------------------10\8-6----------| 
E|-----------------------------------------8--------| 

e|-----------3--------------------------------------| 
B|-----------3--------------------------------------| 
G|-----------3-----------3----5/7\5----5---3-5--5/7-| 
D|-----------5-----3-5-5---5---------5---5----------| 
A|-----------5-3/5----------------------------------| 
E|--3-3\1--3----------------------------------------| 

e|---------------------------------10-10-10---------| 
B|---------------------------------11-11-11---------| 
G|-5-3-----5---3-------------------12-12-12---------| 
D|-----5-5---5---5\3---------------12-12-12---------| 
A|-------------------5-3-----------10-10-10---------| 
E|-----------------------6-3~-----------------------| 

e|----------------------------10--------------------| 
B|-13b-(15)------13b-11-13----10---13b-(15~)--------| 
G|------------12--------------10--------------------| 
D|----------------------------12--------------------| 
A|--------------------------------------------------| 
E|--------------------------------------------------| 

e|------------------------------6--5-5p3-3----------| 
B|-10h11p10----10---------------4----------6-6p3----| 
G|----------12----10--12--------3----------------5~-| 
D|------------------12----12b15-5-------------------| 
A|------------------------------3-------------------| 
E|--------------------------------------------------| 

e|-------------------10-----------------------------| 
B|----13b-13-11--11--10---15-15-13b-15--15-13-10----| 
G|-12----------12----10--------------------------12-| 
D|-------------------12-----------------------------| 
A|--------------------------------------------------| 
E|--------------------------------------------------| 

e|--------------------------------------------------| 
B|-10------------6------------11b-13-13bp11---------| 
G|----10\9-7~--5---7~---12-12-----------------------| 
D|--------------------------------------------------| 
A|--------------------------------------------------| 
E|--------------------------------------------------| 

e|-15-15-15-----------------------------------------| 
B|-15-15-15-----------------------------------------| 
G|-15-15-15------3---5b-5---3-----------------------| 
D|-12-12-12--------5------5-------------------------| 
A|------------------------------3\1/3/5\3\1---------| 
E|-------------------------------------------3-6b-3-|  
	  

No existe una video leccione para esta canción

request
LosAcordes
Buscar
auto avanzar rasgueos aumentar disminuir cambiar color esconder acordes gráficos
losacordes exhibir acordes losacordes youTube video losacordes ocultar tabs losacordes ir hacia arriba losacordes