David Gilmour

Início > David Gilm... > acordes

Cruise Tablatura

David Gilmour

Dificultad:Ningún gradoNingún grado

Catata

tuner correct add songbook print version text version salvar en e-mail
acordesukuleletablaturabajobateríaarmónicaflautacavacopiano Guitar Pro
acordes

Cruise

Tono:  C Más
Cruise Key GG
Cruise Key G#G#
Cruise Key AA
Cruise Key A#A#(Disminuir uno tono)
Cruise Key BB(Disminuir uno semi-tono)
Cruise Key CC(tono original)
Cruise Key C#C#(Aumentar uno semi-tono)
Cruise Key DD(Aumentar uno tono)
Cruise Key D#D#
Cruise Key EE
Cruise Key FF
Cruise Key F#F#
	   
Esses são riffs tocados durante os versos 
 
 
Riff #1 
E -----------------3--5--5--3--3--|--8/10/8--7-------------------------------| 
B --1-----1--3--5-----------------|-------------10--8-10--10--8--8--5-----3--| 
G -----0--------------------------|------------------------------------5-----| 
D --------------------------------|------------------------------------------| 
A --------------------------------|------------------------------------------| 
E --------------------------------|------------------------------------------| 
 
Riff #2 
E --------------------------------| 
B --10--10--8/6--5--5--5--8-------| 
G --------------------------------| 
D --------------------------------| 
A --------------------------------| 
E --------------------------------| 
 
Riff #1 durante os versos... 
 
C    G            F         C 
Cruise... you are making me sing 
Am           G        F          C 
now you have taken me under your wing 
C    G            F               C 
Cruise... we both know you're the best 
Am           G               F       C 
how can they say you're like all the rest? 
 
** Riff#2 ** ao fim. 
 
E assim se repete até o fim da música. 
Qualquer correção é bem vinda. 

	  

No existe una video leccione para esta canción

request
Aumentar uno tonoAumentar uno tono
Aumentar uno semi-tonoAumentar uno semi-tono
Disminuir uno semi-tonoDisminuir uno semi-tono
Disminuir uno tonoDisminuir uno semi-tono
LosAcordes
Buscar
auto avanzar rasgueos aumentar disminuir cambiar color esconder acordes gráficos
losacordes exhibir acordes losacordes youTube video losacordes ocultar tabs losacordes ir hacia arriba losacordes