David Bowie

Início > David Bowi... > acordes

Ziggy Stardust Tablatura

David Bowie

Dificultad:Ningún gradoNingún grado

Teusalves

tuner correct add songbook print version text version salvar en e-mail
acordesukuleletablaturabaixobateríaarmónicaflautacavacopiano Guitar Pro
acordes

Ziggy Stardust

Áño: 1972 - Álbum: The Rise And Fall Of Ziggy Stardust

	  |-3-|-2-|--0--|--0--|--2--|-0-|--0--|-0-|-0-|  
|-3-|-3-|--3--|--1--|--3--|-1-|--0--|-2-|-0-|  
|-0-|-2-|--0--|--2--|--4--|-0-|--0--|-2-|-1-|  
|-0-|-0-|--2--|--2--|--4--|-2-|--2--|-2-|-2-|  
|-2-|---|--3--|--0--|--2--|-3-|--2--|-0-|-2-|  
|-3-|---|-----|-----|--2--|-0-|--0--|-0-|-0-|  


|----5----|----3----|-1-|-----0-----|-----5 ----|  
|----5----|----3----|-1-|-----0-----|-----7-----|  
|----6----|----4----|-2-|-----2-----|-----7-----|  
|----7----|----5----|-3-|-----2-----|-----7-----|  
|----7----|----5----|-3-|-----3-----|-----5-----|  
|----5----|----3----|-1-|-----0-----|-----------|  



|3-------x-------2-3-2-3-2---2---|--------------------------------|  
|3-------x-------3---3---3---3---|--3-----3-----3-----3-----3---3-|  
|0-------x-------2-----------2---|0---0-------0---0---------------|  
|0-------x-------0---------------|--------------------------------|  
|2-------x-----------------------|3-----3-----2-----2-----0---0---|  
|3-------x-----------------------|--------------------------------|  


G                                 Bm                                                             

|3-------------------------------|----2~~~~~~~~~~~~~~~~~~~2-0-2(3)|  
|0-------------------------------|----3~~~~~~~~~~~~~~~~~~~3-2-3---|  
|0-------------------------------|--------------------------------|  
|0-------------------------------|--------------------------------|  
|2-------------------------------|--------------------------------|  
|3-------------------------------|--------------------------------|  

1 & 2 & 3 & 4 & 1 & 2 & 3 & 4 &  

Gilly. The Spiders From Mars He Played it Left Hand  
C                                 D                                                             

|0-------------------------------|--------------------------------|  
|1-------------------------------|--------------------------------|  
|--------------------------------|--------------------------------|  
|--------------------------------|--------------------------------|  
|----------------3---2---3---4---|5-----5/7---5-------------------|  
|--------------------------------|--------------------7---5-------|  

1 & 2 & 3 & 4 & 1 & 2 & 3 & 4 &  

But Made It too far. Became The Special  
G                                 Em                                                             

|--------------------------------|-----------{12}-{7}-{12}--------|  
|--------------------------------|--------------------------------|  
|--------------------------------|--------------------------------|  
|--------------------------------|--------------------------------|  
|--------------------------------|--------------------------------|  
|3---------------3---2---3---5---|0-------------------------------|  

1 & 2 & 3 & 4 & 1 & 2 & 3 & 4 &  

Man. Then We were Ziggy's Band.  
A                                  C                                                           

|--------------------------------|--------------------------------|  
|--------------------------------|--------------------------------|  
|2----------------------------2h4|5-------------------------------|  
|--------------------------------|x-------------------------------|  
|--------------------------------|3-------------------------------|  
|--------------------------------|--------------------------------|  

1 & 2 & 3 & 4 & 1 & 2 & 3 & 4 &  

Ziggy Really Sang. Screwed Up eyes And Screwed Down  
G                                 Bm                                                            

|3-------------------------------|2-------------------------------|  
|2-------------------------------|3-------------------------------|  
|0-------------------------------|4-------------------------------|  
|0-------------------------------|4-------------------------------|  
|2-------------------------------|2-------------------------------|  
|3-------------------------------|2-------------------------------|  

1 & 2 & 3 & 4 & 1 & 2 & 3 & 4 &  

Hairdo, Like some Cat From Japan  
C D He could Lick 'em by  

|--------------------------------|--------------------------------|  
|--------------------------------|--------------------------------|  
|--------------------------------|--------------------------------|  
|--------------------------------|--------------------------------|  
|----------------3---2---3---4---|5-----5s7---5-------------------|  
|--------------------------------|--------------------7---5-------|  

1 & 2 & 3 & 4 & 1 & 2 & 3 & 4 &  

Smiling. He Could Leave 'em to  
G                                                                                             

|--------------------------------|  
|--------------------------------|  
|--------------------------------|  
|--------------------------------|  
|--------------------------------|  
|3-------------------------------|  

1 & 2 & 3 & 4 &  

Hang they Came on so Loaded Man Well hung And a  
E                                 A                                                            

|----------------0---------------|--------------------------------|  
|--------------------0-----------|--------------------------------|  
|--------------------------------|--------------------------------|  
|----------------------------0---|--------------------------------|  
|--------------------------------|0---------------------------0h2-|  
|0-------------------------------|--------------------------------|  

1 & 2 & 3 & 4 & 1 & 2 & 3 & 4 &  

Snow-White tan  
C                                                                                             

|--------------------------------|  
|--------------------------------|  
|--------------------------------|  
|5-------------------------------|  
|3-------------------------------|  
|--------------------------------|  

1 & 2 & 3 & 4 &  

Chorus  

So Where were the Spiders......  
{A}(Barre) {G}(Barre) F E F E F E F G  

|--------------------------------|--------------------------------|  
|5-5-5-5-5\------3-3-3-3-3\------|1---0---1---0---1---0---1---3---|  
|6-6-6-6-6\------4-4-4-4-4\------|2---2---2---2---2---2---2---4---|  
|7-7-7-7-7\------5-5-5-5-5\------|3---3---3---3---3---3---3---5---|  
|7-7-7-7-7\------5-5-5-5-5\------|3---3---3---3---3---3---3---5---|X3  
|5-5-5-5-5\------3-3-3-3-3\------|1---0---1---0---1---0---1---3---|  

1 & 2 & 3 & 4 & 1 & 2 & 3 & 4 &  

So We Bitched About his fans and should we crush his sweet hands?  
D (Barre) E  

|--------------------------------|0-----------0-----------0-------|  
|7-------7---x-x-x-7-x-x-7---x-x-|0-----------0-----------0-------|  
|7-------7---x-x-x-7-x-x-7---x-x-|1-------x---1-------x---1-------|  
|7-------7---x-x-x-7-x-x-7---x-x-|2-------x---2-------x---2---x---|  
|5-------5---x-x-x-5-x-x-5---x-x-|2-------x---2-------x---2---x---|  
|--------------------------------|0-----------0-----------0---x---|  

1 & 2 & 3 & 4 & 1 & 2 & 3 & 4 &  

PLAY THE INTRO RIFF 2X HERE  

verse 2  

Ziggy Played For Time Jiving us that weeee were voo-  
G                                 Bm                                                            

|3-------------------------------|2~~~~~~~~~~~~~~~~~~~~~~~~~~~2---|  
|3-------------------------------|3~~~~~~~~~~~~~~~~~~~~~~~~~~~3---|  
|0-------------------------------|--------------------------------|  
|0-------------------------------|--------------------------------|  
|2-------------------------------|--------------------------------|  
|3-------------------------------|--------------------------------|  

1 & 2 & 3 & 4 & 1 & 2 & 3 & 4 &  

-Doo The Kids Were Just Class He Was The Nazz  
C                                 D                                                            

|0-------------------------------|--------------------------------|  
|1-------------------------------|--------------------------------|  
|--------------------------------|--------------------------------|  
|--------------------------------|--------------------------------|  
|----------------3---2---3---4---|5-----5s7---5-------------------|  
|--------------------------------|--------------------7---5-------|  

1 & 2 & 3 & 4 & 1 & 2 & 3 & 4 &  

With God Given Ass He Took It All too  
G                                 E                                                            

|--------------------------------|--------------------------------|  
|--------------------------------|--------------------------------|  
|--------------------------------|--------------------------------|  
|--------------------------------|--------------------------------|  
|--------------------------------|2---------------2---------------|  
|3-----------------------2-------|0---------------0---------------|  

1 & 2 & 3 & 4 & 1 & 2 & 3 & 4 &  

Far But Boy Could He Play Guitar.  

Am                                 C                                                            

|--------------------------------|--------------------------------|  
|--------------------------------|--------------------------------|  
|--------------------------------|--------------------------------|  
|2---------------------------x-x-|5---------------5-5-5-5-5---5---|  
|0---------------------------x-x-|3---------------3-3-3-3-3---3---|  
|--------------------------------|--------------------------------|  

1 & 2 & 3 & 4 & 1 & 2 & 3 & 4 &  

Play Another Chorus HERE  

add 4 Intro Riffs, before finishing with the outro.  

Outro  

Ziggy Played Guit-ar  
G x D Cadd9  

|3-------x-------2-3-2-3-2---2---|--------------------------------|  
|3-------x-------3---3---3---3---|3-------------------------------|  
|0-------x-------2-----------2---|0-------------------------------|  
|0-------x-------0---------------|2-------------------------------|  
|2-------x-----------------------|3-------------------------------|  
|3-------x-----------------------|--------------------------------|  

1 & 2 & 3 & 4 & 1 & 2 & 3 & 4 &  

G (all Pull offs and Hammer ons)  

|3-------------------------------|--------------------------------|  
|3-------------------------------|-----------------------------0--|  
|0-------------------------------|740740740740740740740740740740--|  
|0-------------------------------|-----------------------------0--|  
|2-------------------------------|--------------------------------|  
|3-------------------------------|--------------------------------|  


NOTE: these must all be natural harmonics.  

|--------------------------------|  
|--------------------------------|  
|------{12}-----{7}-----{5}------|  
|--------------------------------|  
|--------------------------------|  
|--------------------------------|  

1 & 2 & 3 & 4 &  

END 
	  

No existe una video leccione para esta canción

request
Aumentar uno tonoAumentar uno tono
Aumentar uno semi-tonoAumentar uno semi-tono
Disminuir uno semi-tonoDisminuir uno semi-tono
Disminuir uno tonoDisminuir uno semi-tono
LosAcordes
Buscar
auto avanzar rasgueos aumentar disminuir cambiar color esconder acordes gráficos
losacordes exhibir acordes losacordes youTube video losacordes ocultar tabs losacordes ir hacia arriba losacordes