David Bowie

Início > David Bowi... > acordes

Warszawa Tablatura

David Bowie

Dificultad:Ningún gradoNingún grado

PAULLET3

tuner correct add songbook print version text version salvar en e-mail
acordesukuleletablaturabajobateríaarmónicaflautacavacopiano Guitar Pro
acordes

Warszawa

Áño: 1999 - Álbum: Low

Tono:  A Más
Warszawa Key EE
Warszawa Key FF
Warszawa Key F#F#
Warszawa Key GG(Disminuir uno tono)
Warszawa Key G#G#(Disminuir uno semi-tono)
Warszawa Key AA(tono original)
Warszawa Key A#A#(Aumentar uno semi-tono)
Warszawa Key BB(Aumentar uno tono)
Warszawa Key CC
Warszawa Key C#C#
Warszawa Key DD
Warszawa Key D#D#
	  | A5 | A5 | A5 | A5 | 
| A5 | A5 | A5 | A5 | 
   A5 
E-|-----------------|-----------------|-----------------|-----------------| 
B-|---------8---6~~~|~~~~~~~~~~~~~~~~~|~5~~~~~~~~~~~~~~~|~~~~~~~~~~~~~~~~~| 
G-|-----7-----------|-----------------|-----------------|-----------------| 
D-|-7---------------|-----------------|-----------------|-----------------| 
A-|-----------------|-----------------|-----------------|-----------------| 
E-|-----------------|-----------------|-----------------|-----------------| 

| A5 | A5 | A5 | 
   A5                C 
E-|-----------------|-----------------|-----------------|-----------------| 
B-|-----------------|-----------------|-----------------|-----------------| 
G-|-----4---5~~~~~~~|~~~~~~~~~~~~~~~~~|~~~~~~~~~~~~~~~~~|-----------------| 
D-|-7---------------|-----------------|-----------------|-----------------| 
A-|-----------------|-----------------|-----------------|-----------------| 
E-|-----------------|-----------------|-----------------|-----------------| 

| C | C | C | C | C | 
   F# 
E-|-----------------|-----------------|-----------------|-----------------| 
B-|-----------------|-----------------|-----------------|-----------------| 
G-|-----5---6-------|-5-8-------------|-----------------|-5-8-------------| 
D-|-8---------------|-----8~~~~~~~~~~~|~~~~~~~~~~~~~~~~~|-----8~~~~~~~~~~~| 
A-|-----------------|-----------------|-----------------|-----------------| 
E-|-----------------|-----------------|-----------------|-----------------| 

   Ebm                                 C# 
E-|---------------6-|-----------------|-----------------|-----------------| 
B-|-7---6-----------|-9---7-----------|-----------------|-----------------| 
G-|---------8-------|-----------------|-8---10~~~~~~~~~~|~~~~~~~~~~~~~~~~~| 
D-|-----------------|-----------------|-----------------|-----------------| 
A-|-----------------|-----------------|-----------------|-----------------| 
E-|-----------------|-----------------|-----------------|-----------------| 

   F# 
E-|-----------------|-----------------|-----------------|-----------------| 
B-|-----------------|-----------------|-----------------|-----------------| 
G-|-----5---6-------|-5-8-------------|-----------------|-5-8-------------| 
D-|-8---------------|-----8~~~~~~~~~~~|~~~~~~~~~~~~~~~~~|-----8~~~~~~~~~~~| 
A-|-----------------|-----------------|-----------------|-----------------| 
E-|-----------------|-----------------|-----------------|-----------------| 

   Ebm                                 C# 
E-|---------------6-|-----------------|-----------------|-----------------| 
B-|-7---6-----------|-9---7-----------|-----------------|-----------------| 
G-|---------8-------|-----------------|-8---10~~~~~~~~~~|~~~~~~~~~~~~~~~~~| 
D-|-----------------|-----------------|-----------------|-----------------| 
A-|-----------------|-----------------|-----------------|-----------------| 
E-|-----------------|-----------------|-----------------|-----------------| 

   B                                   F# 
E-|-----------------|-6-------7---6---|-6~~~~~~~~~~~~~~~|~~~~~~~~~~~~~~~~~| 
B-|-------------6-7-|-----9-----------|-----------------|-----------------| 
G-|-----6---8-------|-----------------|-----------------|-----------------| 
D-|-9---------------|-----------------|-----------------|-----------------| 
A-|-----------------|-----------------|-----------------|-----------------| 
E-|-----------------|-----------------|-----------------|-----------------| 

   B                                   F# 
E-|-----------------|-6-------7---6---|-9~~~~~~~~~~~~~~~|~~~~~~~~~~~~~~~~~| 
B-|-------------6-7-|-----9-----------|-----------------|-----------------| 
G-|-----6---8-------|-----------------|-----------------|-----------------| 
D-|-9---------------|-----------------|-----------------|-----------------| 
A-|-----------------|-----------------|-----------------|-----------------| 
E-|-----------------|-----------------|-----------------|-----------------| 

   F# 
E-|-----------------|-----------------|-----------------|-----------------| 
B-|-----------------|-----------------|-----------------|-----------------| 
G-|-----5---6-------|-5-8-------------|-----------------|-5-8-------------| 
D-|-8---------------|-----8~~~~~~~~~~~|~~~~~~~~~~~~~~~~~|-----8~~~~~~~~~~~| 
A-|-----------------|-----------------|-----------------|-----------------| 
E-|-----------------|-----------------|-----------------|-----------------| 

   Ebm                                 C# 
E-|---------------6-|-----------------|-----------------|-----------------| 
B-|-7---6-----------|-9---7-----------|-----------------|-----------------| 
G-|---------8-------|-----------------|-8---10~~~~~~~~~~|~~~~~~~~~~~~~~~~~| 
D-|-----------------|-----------------|-----------------|-----------------| 
A-|-----------------|-----------------|-----------------|-----------------| 
E-|-----------------|-----------------|-----------------|-----------------| 

   F# 
E-|-----------------|-----------------|-----------------|-----------------| 
B-|-----------------|-----------------|-----------------|-----------------| 
G-|-----5---6-------|-5-8-------------|-----------------|-5-8-------------| 
D-|-8---------------|-----8~~~~~~~~~~~|~~~~~~~~~~~~~~~~~|-----8~~~~~~~~~~~| 
A-|-----------------|-----------------|-----------------|-----------------| 
E-|-----------------|-----------------|-----------------|-----------------| 

   Ebm                                 C# 
E-|---------------6-|-----------------|-----------------|-----------------| 
B-|-7---6-----------|-9---7-----------|-----------------|-----------------| 
G-|---------8-------|-----------------|-8---10~~~~~~~~~~|~~~~~~~~~~~~~~~~~| 
D-|-----------------|-----------------|-----------------|-----------------| 
A-|-----------------|-----------------|-----------------|-----------------| 
E-|-----------------|-----------------|-----------------|-----------------| 

   B                 F# 
E-|-----------------|-6-------7---6---|-6~~~~~~~~~~~~~~~|~~~~~~~~~~~~~~~~~| 
B-|-------------6-7-|-----9-----------|-----------------|-----------------| 
G-|-----6---8-------|-----------------|-----------------|-----------------| 
D-|-9---------------|-----------------|-----------------|-----------------| 
A-|-----------------|-----------------|-----------------|-----------------| 
E-|-----------------|-----------------|-----------------|-----------------| 

   B                                   F# 
E-|-----------------|-6-------7---6---|-9~~~~~~~~~~~~~~~|~~~~~~~~~~~~~~~~~| 
B-|-------------6-7-|-----9-----------|-----------------|-----------------| 
G-|-----6---8-------|-----------------|-----------------|-----------------| 
D-|-9---------------|-----------------|-----------------|-----------------| 
A-|-----------------|-----------------|-----------------|-----------------| 
E-|-----------------|-----------------|-----------------|-----------------| 

| F# | F# | F#m | F#m ||  
 E | | 
E 
Sula vie di-le-jo 
E 
Sula vie mi-le-jo 
E 
He-li venco de-ho 
E 
Che-li venco de-ho 
E 
Malio 

E-|-------------- 
B-|--------8-10-- 
G-|---9-10------- 
D-|-------------- 
A-|-------------- 
E-|-------------- 

A5 
A5 
He-libo se-yo-man 
A5 
He-libo se-yo-man 
A5 
Malio 
A5 
Malio 

| A5 G | C | C# | C# | 
   F# 
E-|-----------------|-----------------|-----------------|-----------------| 
B-|-----------------|-----------------|-----------------|-----------------| 
G-|-----5---6-------|-5-8-------------|-----------------|-5-8-------------| 
D-|-8---------------|-----8~~~~~~~~~~~|~~~~~~~~~~~~~~~~~|-----8~~~~~~~~~~~| 
A-|-----------------|-----------------|-----------------|-----------------| 
E-|-----------------|-----------------|-----------------|-----------------| 

   Ebm                                 C# 
E-|---------------6-|-----------------|-----------------|-----------------| 
B-|-7---6-----------|-9---7-----------|-----------------|-----------------| 
G-|---------8-------|-----------------|-8---10~~~~~~~~~~|~~~~~~~~~~~~~~~~~| 
D-|-----------------|-----------------|-----------------|-----------------| 
A-|-----------------|-----------------|-----------------|-----------------| 
E-|-----------------|-----------------|-----------------|-----------------| 

   F# 
E-|-----------------|-----------------|-----------------|-----------------| 
B-|-----------------|-----------------|-----------------|-----------------| 
G-|-----5---6-------|-5-8-------------|-----------------|-5-8-------------| 
D-|-8---------------|-----8~~~~~~~~~~~|~~~~~~~~~~~~~~~~~|-----8~~~~~~~~~~~| 
A-|-----------------|-----------------|-----------------|-----------------| 
E-|-----------------|-----------------|-----------------|-----------------| 

    Ebm                                 C# 
E-|---------------6-|-----------------|-----------------|-----------------| 
B-|-7---6-----------|-9---7-----------|-----------------|-----------------| 
G-|---------8-------|-----------------|-8---10~~~~~~~~~~|~~~~~~~~~~~~~~~~~| 
D-|-----------------|-----------------|-----------------|-----------------| 
A-|-----------------|-----------------|-----------------|-----------------| 
E-|-----------------|-----------------|-----------------|-----------------| 
	  

No existe una video leccione para esta canción

request
Aumentar uno tonoAumentar uno tono
Aumentar uno semi-tonoAumentar uno semi-tono
Disminuir uno semi-tonoDisminuir uno semi-tono
Disminuir uno tonoDisminuir uno semi-tono
LosAcordes
Buscar
auto avanzar rasgueos aumentar disminuir cambiar color esconder acordes gráficos
losacordes exhibir acordes losacordes youTube video losacordes ocultar tabs losacordes ir hacia arriba losacordes