David Bowie

Início > David Bowi... > acordes

Five Years Tablatura

David Bowie

Dificultad:Ningún gradoNingún grado

fernsantana

tuner correct add songbook print version text version salvar en e-mail
acordesukuleletablaturabajobateríaarmónicaflautacavacopiano Guitar Pro
acordes

Five Years

Áño: 1972 - Álbum: The Rise And Fall Of Ziggy Stardust

Tono:  G Más
Five Years Key DD
Five Years Key D#D#
Five Years Key EE
Five Years Key FF(Disminuir uno tono)
Five Years Key F#F#(Disminuir uno semi-tono)
Five Years Key GG(tono original)
Five Years Key G#G#(Aumentar uno semi-tono)
Five Years Key AA(Aumentar uno tono)
Five Years Key A#A#
Five Years Key BB
Five Years Key CC
Five Years Key C#C#
	  FIVE YEARS 

As recorded by David Bowie 
(From the 1972 Album THE RISE AND FALL OF ZIGGY STARDUST AND THE SPIDERS FROM MARS) 

Words and Music by David Bowie 

Transcribed by Slowhand 


Gtr I (E A D G B E) - 'David Bowie - 12-string Acoustic Guitar' 
Gtr II (E A D G B E) - 'Mick Ronson - Electric Guitar' 
Gtr III (E A D G B E) - 'Mick Ronson - Electric Guitar' 


 Intro 
  Q=84 
  N.C. 
 6/8 
  Gtr I (Ac. 12-string Gtr.) 
  W        W        W        W 
|--------|--------|--------|------| 
|--------|--------|--------|------| 
|--------|--------|--------|------| 
|--------|--------|--------|------| 
|--------|--------|--------|------| 
|--------|--------|--------|------| 


  W        W        W 
|--------|--------|------|| 
|--------|--------|------|| 
|--------|--------|------|| 
|--------|--------|------|| 
|--------|--------|------|| 
|--------|--------|------|| 


 1st Verse 
  G          N.C. 
   H.        W        W        W 
|-^3-------|--------|--------|------| 
|-^0-------|--------|--------|------| 
|-^0-------|--------|--------|------| 
|-^0-------|--------|--------|------| 
|-^2-------|--------|--------|------| 
|-^3-------|--------|--------|------| 


  A          N.C. 
   H.        W        W        W 
|-^0-------|--------|--------|------| 
|-^2-------|--------|--------|------| 
|-^2-------|--------|--------|------| 
|-^2-------|--------|--------|------| 
|-^0-------|--------|--------|------| 
|----------|--------|--------|------| 


  G          N.C. 
   H.        W        W        W 
|-^3-------|--------|--------|------| 
|-^0-------|--------|--------|------| 
|-^0-------|--------|--------|------| 
|-^0-------|--------|--------|------| 
|-^2-------|--------|--------|------| 
|-^3-------|--------|--------|------| 


  A          N.C. 
   H.        W        W        W 
|-^0-------|--------|--------|------| 
|-^2-------|--------|--------|------| 
|-^2-------|--------|--------|------| 
|-^2-------|--------|--------|------| 
|-^0-------|--------|--------|------| 
|----------|--------|--------|------| 


  G          N.C. 
   H.        W        W        W 
|-^3-------|--------|--------|------| 
|-^0-------|--------|--------|------| 
|-^0-------|--------|--------|------| 
|-^0-------|--------|--------|------| 
|-^2-------|--------|--------|------| 
|-^3-------|--------|--------|------| 


  A          N.C. 
   H.        W        W        W 
|-^0-------|--------|--------|------|| 
|-^2-------|--------|--------|------|| 
|-^2-------|--------|--------|------|| 
|-^2-------|--------|--------|------|| 
|-^0-------|--------|--------|------|| 
|----------|--------|--------|------|| 


 Bridge 
  W        W        W        W        W 
|--------|--------|--------|--------|------| 
|--------|--------|--------|--------|------| 
|--------|--------|--------|--------|------| 
|--------|--------|--------|--------|------| 
|--------|--------|--------|--------|------| 
|--------|--------|--------|--------|------| 


  W        W        W        W        W 
|--------|--------|--------|--------|------|| 
|--------|--------|--------|--------|------|| 
|--------|--------|--------|--------|------|| 
|--------|--------|--------|--------|------|| 
|--------|--------|--------|--------|------|| 
|--------|--------|--------|--------|------|| 


 2nd Verse 
          G                           Em 
  Q  E E. S S S   E. S S S E. S S S   Q.   +E. S S S   E. S S S E. S S S 
|---------3-3-3-|-3--3-3-3-3--3-3-3-|-0----(0)-0-0-0-|-0--0-0-0-0--0-0-0-| 
|---------0-0-0-|-0--0-0-0-0--0-0-0-|-0----(0)-0-0-0-|-0--0-0-0-0--0-0-0-| 
|---------0-0-0-|-0--0-0-0-0--0-0-0-|-0----(0)-0-0-0-|-0--0-0-0-0--0-0-0-| 
|---------0-0-0-|-0--0-0-0-0--0-0-0-|-2----(2)-2-2-2-|-2--2-2-2-2--2-2-2-| 
|---------2-2-2-|-2--2-2-2-2--2-2-2-|-2----(2)-2-2-2-|-2--2-2-2-2--2-2-2-| 
|---------3-3-3-|-3--3-3-3-3--3-3-3-|-0----(0)-0-0-0-|-0--0-0-0-0--0-0-0-| 


  A 
  E. S S S E. S S S   E. S S S E. S S S 
|-0--0-0-0-0--0-0-0-|-0--0-0-0-0--0-0-0-| 
|-2--2-2-2-2--2-2-2-|-2--2-2-2-2--2-2-2-| 
|-2--2-2-2-2--2-2-2-|-2--2-2-2-2--2-2-2-| 
|-2--2-2-2-2--2-2-2-|-2--2-2-2-2--2-2-2-| 
|-0--0-0-0-0--0-0-0-|-0--0-0-0-0--0-0-0-| 
|-------------------|-------------------| 


  C 
  E. S S S E. S S S   E. S S S E. S S S 
|-0--0-0-0-0--0-0-0-|-0--0-0-0-0--0-0-0-| 
|-1--1-1-1-1--1-1-1-|-1--1-1-1-1--1-1-1-| 
|-0--0-0-0-0--0-0-0-|-0--0-0-0-0--0-0-0-| 
|-2--2-2-2-2--2-2-2-|-2--2-2-2-2--2-2-2-| 
|-3--3-3-3-3--3-3-3-|-3--3-3-3-3--3-3-3-| 
|-------------------|-------------------| 


  G 
  E. S S S E. S S S   E. S S S E. S S S 
|-3--3-3-3-3--3-3-3-|-3--3-3-3-3--3-3-3-| 
|-0--0-0-0-0--0-0-0-|-0--0-0-0-0--0-0-0-| 
|-0--0-0-0-0--0-0-0-|-0--0-0-0-0--0-0-0-| 
|-0--0-0-0-0--0-0-0-|-0--0-0-0-0--0-0-0-| 
|-2--2-2-2-2--2-2-2-|-2--2-2-2-2--2-2-2-| 
|-3--3-3-3-3--3-3-3-|-3--3-3-3-3--3-3-3-| 


  Em 
  E. S S S E. S S S   E. S S S E. S S S 
|-0--0-0-0-0--0-0-0-|-0--0-0-0-0--0-0-0-| 
|-0--0-0-0-0--0-0-0-|-0--0-0-0-0--0-0-0-| 
|-0--0-0-0-0--0-0-0-|-0--0-0-0-0--0-0-0-| 
|-2--2-2-2-2--2-2-2-|-2--2-2-2-2--2-2-2-| 
|-2--2-2-2-2--2-2-2-|-2--2-2-2-2--2-2-2-| 
|-0--0-0-0-0--0-0-0-|-0--0-0-0-0--0-0-0-| 


  A 
  E. S S S E. S S S   E. S S S E. S S S 
|-0--0-0-0-0--0-0-0-|-0--0-0-0-0--0-0-0-| 
|-2--2-2-2-2--2-2-2-|-2--2-2-2-2--2-2-2-| 
|-2--2-2-2-2--2-2-2-|-2--2-2-2-2--2-2-2-| 
|-2--2-2-2-2--2-2-2-|-2--2-2-2-2--2-2-2-| 
|-0--0-0-0-0--0-0-0-|-0--0-0-0-0--0-0-0-| 
|-------------------|-------------------| 


  C 
  E. S S S E. S S S   E. S S S E. S S S 
|-0--0-0-0-0--0-0-0-|-0--0-0-0-0--0-0-0-| 
|-1--1-1-1-1--1-1-1-|-1--1-1-1-1--1-1-1-| 
|-0--0-0-0-0--0-0-0-|-0--0-0-0-0--0-0-0-| 
|-2--2-2-2-2--2-2-2-|-2--2-2-2-2--2-2-2-| 
|-3--3-3-3-3--3-3-3-|-3--3-3-3-3--3-3-3-| 
|-------------------|-------------------| 


  G 
  E. S S S E. S S S   E. S S S E. S S S 
|-3--3-3-3-3--3-3-3-|-3--3-3-3-3--3-3-3-| 
|-0--0-0-0-0--0-0-0-|-0--0-0-0-0--0-0-0-| 
|-0--0-0-0-0--0-0-0-|-0--0-0-0-0--0-0-0-| 
|-0--0-0-0-0--0-0-0-|-0--0-0-0-0--0-0-0-| 
|-2--2-2-2-2--2-2-2-|-2--2-2-2-2--2-2-2-| 
|-3--3-3-3-3--3-3-3-|-3--3-3-3-3--3-3-3-| 


  Em 
  E. S S S E. S S S   E. S S S E. S S S 
|-0--0-0-0-0--0-0-0-|-0--0-0-0-0--0-0-0-| 
|-0--0-0-0-0--0-0-0-|-0--0-0-0-0--0-0-0-| 
|-0--0-0-0-0--0-0-0-|-0--0-0-0-0--0-0-0-| 
|-2--2-2-2-2--2-2-2-|-2--2-2-2-2--2-2-2-| 
|-2--2-2-2-2--2-2-2-|-2--2-2-2-2--2-2-2-| 
|-0--0-0-0-0--0-0-0-|-0--0-0-0-0--0-0-0-| 


  A 
  E. S S S E. S S S   E. S S S E. S S S 
|-0--0-0-0-0--0-0-0-|-0--0-0-0-0--0-0-0-| 
|-2--2-2-2-2--2-2-2-|-2--2-2-2-2--2-2-2-| 
|-2--2-2-2-2--2-2-2-|-2--2-2-2-2--2-2-2-| 
|-2--2-2-2-2--2-2-2-|-2--2-2-2-2--2-2-2-| 
|-0--0-0-0-0--0-0-0-|-0--0-0-0-0--0-0-0-| 
|-------------------|-------------------| 


  C 
  E. S S S E. S S S   E. S S S E. S S S 
|-0--0-0-0-0--0-0-0-|-0--0-0-0-0--0-0-0-| 
|-1--1-1-1-1--1-1-1-|-1--1-1-1-1--1-1-1-| 
|-0--0-0-0-0--0-0-0-|-0--0-0-0-0--0-0-0-| 
|-2--2-2-2-2--2-2-2-|-2--2-2-2-2--2-2-2-| 
|-3--3-3-3-3--3-3-3-|-3--3-3-3-3--3-3-3-| 
|-------------------|-------------------| 


  G 
  E. S S S E. S S S   E. S S S E. S S S 
|-3--3-3-3-3--3-3-3-|-3--3-3-3-3--3-3-3-| 
|-0--0-0-0-0--0-0-0-|-0--0-0-0-0--0-0-0-| 
|-0--0-0-0-0--0-0-0-|-0--0-0-0-0--0-0-0-| 
|-0--0-0-0-0--0-0-0-|-0--0-0-0-0--0-0-0-| 
|-2--2-2-2-2--2-2-2-|-2--2-2-2-2--2-2-2-| 
|-3--3-3-3-3--3-3-3-|-3--3-3-3-3--3-3-3-| 


  Em 
  E. S S S E. S S S   E. S S S E. S S S 
|-0--0-0-0-0--0-0-0-|-0--0-0-0-0--0-0-0-| 
|-0--0-0-0-0--0-0-0-|-0--0-0-0-0--0-0-0-| 
|-0--0-0-0-0--0-0-0-|-0--0-0-0-0--0-0-0-| 
|-2--2-2-2-2--2-2-2-|-2--2-2-2-2--2-2-2-| 
|-2--2-2-2-2--2-2-2-|-2--2-2-2-2--2-2-2-| 
|-0--0-0-0-0--0-0-0-|-0--0-0-0-0--0-0-0-| 


  A 
  E. S S S E. S S S   E. S S S E. S S S 
|-0--0-0-0-0--0-0-0-|-0--0-0-0-0--0-0-0-| 
|-2--2-2-2-2--2-2-2-|-2--2-2-2-2--2-2-2-| 
|-2--2-2-2-2--2-2-2-|-2--2-2-2-2--2-2-2-| 
|-2--2-2-2-2--2-2-2-|-2--2-2-2-2--2-2-2-| 
|-0--0-0-0-0--0-0-0-|-0--0-0-0-0--0-0-0-| 
|-------------------|-------------------| 


  C 
  E. S S S E. S S S   E. S S S E. S S S 
|-0--0-0-0-0--0-0-0-|-0--0-0-0-0--0-0-0-|| 
|-1--1-1-1-1--1-1-1-|-1--1-1-1-1--1-1-1-|| 
|-0--0-0-0-0--0-0-0-|-0--0-0-0-0--0-0-0-|| 
|-2--2-2-2-2--2-2-2-|-2--2-2-2-2--2-2-2-|| 
|-3--3-3-3-3--3-3-3-|-3--3-3-3-3--3-3-3-|| 
|-------------------|-------------------|| 


 Chorus 
  G 
  E. S S S E. S S S   E. S S S E. S S S 
|-3--3-3-3-3--3-3-3-|-3--3-3-3-3--3-3-3-| 
|-0--0-0-0-0--0-0-0-|-0--0-0-0-0--0-0-0-| 
|-0--0-0-0-0--0-0-0-|-0--0-0-0-0--0-0-0-| 
|-0--0-0-0-0--0-0-0-|-0--0-0-0-0--0-0-0-| 
|-2--2-2-2-2--2-2-2-|-2--2-2-2-2--2-2-2-| 
|-3--3-3-3-3--3-3-3-|-3--3-3-3-3--3-3-3-| 


  Em 
  E. S S S E. S S S   E. S S S E. S S S 
|-0--0-0-0-0--0-0-0-|-0--0-0-0-0--0-0-0-| 
|-0--0-0-0-0--0-0-0-|-0--0-0-0-0--0-0-0-| 
|-0--0-0-0-0--0-0-0-|-0--0-0-0-0--0-0-0-| 
|-2--2-2-2-2--2-2-2-|-2--2-2-2-2--2-2-2-| 
|-2--2-2-2-2--2-2-2-|-2--2-2-2-2--2-2-2-| 
|-0--0-0-0-0--0-0-0-|-0--0-0-0-0--0-0-0-| 


  A                                         C 
  E. S S S E. S S S   S E S S S S E S S S   E. S S S E. S S S   E. S E E S S E 
|-0--0-0-0-0--0-0-0-|-0-0-0-0-0-0-0-0-0-0-|-0--0-0-0-0--0-0-0-|-0--0-0-0-0-0-0-| 
|-2--2-2-2-2--2-2-2-|-2-2-2-2-2-2-2-2-2-2-|-1--1-1-1-1--1-1-1-|-1--1-1-1-1-1-1-| 
|-2--2-2-2-2--2-2-2-|-2-2-2-2-2-2-2-2-2-2-|-0--0-0-0-0--0-0-0-|-0--0-0-0-0-0-0-| 
|-2--2-2-2-2--2-2-2-|-2-2-2-2-2-2-2-2-2-2-|-2--2-2-2-2--2-2-2-|-2--2-2-2-2-2-2-| 
|-0--0-0-0-0--0-0-0-|-0-0-0-0-0-0-0-0-0-0-|-3--3-3-3-3--3-3-3-|-3--3-3-3-3-3-3-| 
|-------------------|---------------------|-------------------|----------------| 


  G                                        Em 
  E. S S S E. S S S   E. S S S E S S S S   E. S E E. S S S   E. S S S E. S S S 
|-3--3-3-3-3--3-3-3-|-3--3-3-3-3-3-3-3-3-|-0--0-0-0--0-0-0-|-0--0-0-0-0--0-0-0-| 
|-0--0-0-0-0--0-0-0-|-0--0-0-0-0-0-0-0-0-|-0--0-0-0--0-0-0-|-0--0-0-0-0--0-0-0-| 
|-0--0-0-0-0--0-0-0-|-0--0-0-0-0-0-0-0-0-|-0--0-0-0--0-0-0-|-0--0-0-0-0--0-0-0-| 
|-0--0-0-0-0--0-0-0-|-0--0-0-0-0-0-0-0-0-|-2--2-2-2--2-2-2-|-2--2-2-2-2--2-2-2-| 
|-2--2-2-2-2--2-2-2-|-2--2-2-2-2-2-2-2-2-|-2--2-2-2--2-2-2-|-2--2-2-2-2--2-2-2-| 
|-3--3-3-3-3--3-3-3-|-3--3-3-3-3-3-3-3-3-|-0--0-0-0--0-0-0-|-0--0-0-0-0--0-0-0-| 


  A 
  E. S S S E. S S S   E. S E E S S S S 
|-0--0-0-0-0--0-0-0-|-0--0-0-0-0-0-0-0-| 
|-2--2-2-2-2--2-2-2-|-2--2-2-2-2-2-2-2-| 
|-2--2-2-2-2--2-2-2-|-2--2-2-2-2-2-2-2-| 
|-2--2-2-2-2--2-2-2-|-2--2-2-2-2-2-2-2-| 
|-0--0-0-0-0--0-0-0-|-0--0-0-0-0-0-0-0-| 
|-------------------|------------------| 


  C 
  E S S S S E S S S S   E S S S S E. S S S 
|-0-0-0-0-0-0-0-0-0-0-|-0-0-0-0-0-0--0-0-0--| 
|-1-1-1-1-1-1-1-1-1-1-|-1-1-1-1-1-1--1-1-1--| 
|-0-0-0-0-0-0-0-0-0-0-|-0-0-0-0-0-0--0-0-0--| 
|-2-2-2-2-2-2-2-2-2-2-|-2-2-2-2-2-2--2-2-2--| 
|-3-3-3-3-3-3-3-3-3-3-|-3-3-3-3-3-3--3-3-3--| 
|---------------------|---------------------| 


  G                                        Em 
  E. S S S E. S S S   E. S S S E S S S S   E. S E E. S S S   E. S S S E. S S S 
|-3--3-3-3-3--3-3-3-|-3--3-3-3-3-3-3-3-3-|-0--0-0-0--0-0-0-|-0--0-0-0-0--0-0-0-| 
|-0--0-0-0-0--0-0-0-|-0--0-0-0-0-0-0-0-0-|-0--0-0-0--0-0-0-|-0--0-0-0-0--0-0-0-| 
|-0--0-0-0-0--0-0-0-|-0--0-0-0-0-0-0-0-0-|-0--0-0-0--0-0-0-|-0--0-0-0-0--0-0-0-| 
|-0--0-0-0-0--0-0-0-|-0--0-0-0-0-0-0-0-0-|-2--2-2-2--2-2-2-|-2--2-2-2-2--2-2-2-| 
|-2--2-2-2-2--2-2-2-|-2--2-2-2-2-2-2-2-2-|-2--2-2-2--2-2-2-|-2--2-2-2-2--2-2-2-| 
|-3--3-3-3-3--3-3-3-|-3--3-3-3-3-3-3-3-3-|-0--0-0-0--0-0-0-|-0--0-0-0-0--0-0-0-| 


  A 
  E S S S S E S S S S   E. S E E S S S S 
|-0-0-0-0-0-0-0-0-0-0-|-0--0-0-0-0-0-0-0-| 
|-2-2-2-2-2-2-2-2-2-2-|-2--2-2-2-2-2-2-2-| 
|-2-2-2-2-2-2-2-2-2-2-|-2--2-2-2-2-2-2-2-| 
|-2-2-2-2-2-2-2-2-2-2-|-2--2-2-2-2-2-2-2-| 
|-0-0-0-0-0-0-0-0-0-0-|-0--0-0-0-0-0-0-0-| 
|---------------------|------------------| 


  C 
  E S S S S E. S S S   E S S S S E. S S S 
|-0-0-0-0-0-0--0-0-0-|-0-0-0-0-0-0--0-0-0-| 
|-1-1-1-1-1-1--1-1-1-|-1-1-1-1-1-1--1-1-1-| 
|-0-0-0-0-0-0--0-0-0-|-0-0-0-0-0-0--0-0-0-| 
|-2-2-2-2-2-2--2-2-2-|-2-2-2-2-2-2--2-2-2-| 
|-3-3-3-3-3-3--3-3-3-|-3-3-3-3-3-3--3-3-3-| 
|--------------------|--------------------| 


  G 
  E. S S S E. S S S    E. S S S E S S S S 
|-3--3-3-3-3--3-3-3-|--3--3-3-3-3-3-3-3-3-| 
|-0--0-0-0-0--0-0-0-|--0--0-0-0-0-0-0-0-0-| 
|-0--0-0-0-0--0-0-0-|--0--0-0-0-0-0-0-0-0-| 
|-0--0-0-0-0--0-0-0-|--0--0-0-0-0-0-0-0-0-| 
|-2--2-2-2-2--2-2-2-|--2--2-2-2-2-2-2-2-2-| 
|-3--3-3-3-3--3-3-3-|--3--3-3-3-3-3-3-3-3-| 
| 
| Gtr II (El. Gtr. w/ light dist.) 
| H.                  +H. 
|-------------------|---------------------| 
|-------------------|---------------------| 
|-------------------|---------------------| 
|-5-----------------|-(5)-----------------| 
|-------------------|---------------------| 
|-------------------|---------------------| 


  Em 
  E. S E E. S S S   E.     S S S  E. S S S 
|-0--0-0-0--0-0-0-|-0------0-0-0--0--0-0-0---| 
|-0--0-0-0--0-0-0-|-0------0-0-0--0--0-0-0---| 
|-0--0-0-0--0-0-0-|-0------0-0-0--0--0-0-0---| 
|-2--2-2-2--2-2-2-|-2------2-2-2--2--2-2-2---| 
|-2--2-2-2--2-2-2-|-2------2-2-2--2--2-2-2---| 
|-0--0-0-0--0-0-0-|-0------0-0-0--0--0-0-0---| 
| 
| W                 S  S S S E    Q. 
|-----------------|--------------------------| 
|-----------------|-3----3---3---(3)---------| 
|-----------------|----4---4-----------------| 
|-----------------|---------------5----------| 
|-----------------|--------------------------| 
|-----------------|--------------------------| 


  A 
   E  S S S S E S S S S   E. S E E S S S S 
|--0--0-0-0-0-0-0-0-0-0-|-0--0-0-0-0-0-0-0-| 
|--2--2-2-2-2-2-2-2-2-2-|-2--2-2-2-2-2-2-2-| 
|--2--2-2-2-2-2-2-2-2-2-|-2--2-2-2-2-2-2-2-| 
|--2--2-2-2-2-2-2-2-2-2-|-2--2-2-2-2-2-2-2-| 
|--0--0-0-0-0-0-0-0-0-0-|-0--0-0-0-0-0-0-0-| 
|-----------------------|------------------| 
| 
| +H.                     W 
|-----------------------|------------------| 
|-(3)-------------------|------------------| 
|-----------------------|------------------| 
|-(5)-------------------|------------------| 
|-----------------------|------------------| 
|-----------------------|------------------| 


  C 
  E S S S S E. S S S   E S S S S E.   S S S 
|-0-0-0-0-0-0--0-0-0-|-0-0-0-0-0-0----0-0-0--| 
|-1-1-1-1-1-1--1-1-1-|-1-1-1-1-1-1----1-1-1--| 
|-0-0-0-0-0-0--0-0-0-|-0-0-0-0-0-0----0-0-0--| 
|-2-2-2-2-2-2--2-2-2-|-2-2-2-2-2-2----2-2-2--| 
|-3-3-3-3-3-3--3-3-3-|-3-3-3-3-3-3----3-3-3--| 
|--------------------|-----------------------| 
| 
| W                    E E   E   E  E   E 
|--------------------|-----------------------| 
|--------------------|-5-5---5---5--5---5----| 
|--------------------|-x-x---x---x--x---x----| 
|--------------------|-----------------------| 
|--------------------|-----------------------| 
|--------------------|-----------------------| 


  G 
   E.         S S S   E. S S S   E.   S S S  E  S S S S 
|--3----------3-3-3---3--3-3-3-|-3----3-3-3--3--3-3-3-3-| 
|--0----------0-0-0---0--0-0-0-|-0----0-0-0--0--0-0-0-0-| 
|--0----------0-0-0---0--0-0-0-|-0----0-0-0--0--0-0-0-0-| 
|--0----------0-0-0---0--0-0-0-|-0----0-0-0--0--0-0-0-0-| 
|--2----------2-2-2---2--2-2-2-|-2----2-2-2--2--2-2-2-2-| 
|--3----------3-3-3---3--3-3-3-|-3----3-3-3--3--3-3-3-3-| 
| 
|  E       Q         +Q.         E  Q       +Q. 
|------------------------------|------------------------| 
|------------------------------|------------------------| 
|------------------------------|------------------------| 
|----------5---------(5)-------|----5-------(5)---------| 
|------------------------------|------------------------| 
|------------------------------|------------------------| 
| 
| Gtr III (El. Gtr. w/ light dist.) 
|                     ~~~~ 
|  E      +Q         +Q.         W 
|------------------------------|------------------------| 
|-15pb17r(15)-------(15)-------|------------------------| 
|------------------------------|------------------------| 
|------------------------------|------------------------| 
|------------------------------|------------------------| 
|------------------------------|------------------------| 


  Em 
  E.   S E E.   S S S   E.   S S S E.   S S S 
|-0----0-0-0----0-0-0-|-0----0-0-0-0----0-0-0-| 
|-0----0-0-0----0-0-0-|-0----0-0-0-0----0-0-0-| 
|-0----0-0-0----0-0-0-|-0----0-0-0-0----0-0-0-| 
|-2----2-2-2----2-2-2-|-2----2-2-2-2----2-2-2-| 
|-2----2-2-2----2-2-2-|-2----2-2-2-2----2-2-2-| 
|-0----0-0-0----0-0-0-|-0----0-0-0-0----0-0-0-| 
| 
| E  E   E E  E   E     E  E   E   E  E   E 
|---------------------|-----------------------| 
|---------------------|-----------------------| 
|---------------------|-----------------------| 
|-x--x---x-x--x---x---|-x--x---x---x--x---x---| 
|---------------------|-----------------------| 
|---------------------|-----------------------| 
| 
| W                     W 
|---------------------|-----------------------| 
|---------------------|-----------------------| 
|---------------------|-----------------------| 
|---------------------|-----------------------| 
|---------------------|-----------------------| 
|---------------------|-----------------------| 


  A 
           E  S S S S E S S S S   E.   S E  E       S  S S S 
|----------0--0-0-0-0-0-0-0-0-0-|-0----0-0--0-------0--0-0-0-| 
|----------2--2-2-2-2-2-2-2-2-2-|-2----2-2--2-------2--2-2-2-| 
|----------2--2-2-2-2-2-2-2-2-2-|-2----2-2--2-------2--2-2-2-| 
|----------2--2-2-2-2-2-2-2-2-2-|-2----2-2--2-------2--2-2-2-| 
|----------0--0-0-0-0-0-0-0-0-0-|-0----0-0--0-------0--0-0-0-| 
|-------------------------------|----------------------------| 
| 
|          Q      E   E E   E     E  E   E  E       E    E 
|-------------------------------|----------------------------| 
|-------------------------------|----------------------------| 
|-------------------------------|----------------------------| 
|-----------------x---x-x---x---|-x--x---x----------x----x---| 
|-------------------------------|----------------------------| 
|-------------------------------|----------------------------| 
| 
|          ~~~~                                     ~~~~ 
|  a      +Q.         Q     E     Q      E  E      +Q 
|-14pb16r(14)-------------------|----------------------------| 
|-------------------------------|----------13pb15r(13)-------| 
|-------------------------------|----------------------------| 
|-------------------------------|----------------------------| 
|-------------------------------|----------------------------| 
|-------------------------------|----------------------------| 


  C 
  E S S S S E.   S S S   E S S S S E.   S S S 
|-0-0-0-0-0-0----0-0-0-|-0-0-0-0-0-0----0-0-0--|| 
|-1-1-1-1-1-1----1-1-1-|-1-1-1-1-1-1----1-1-1--|| 
|-0-0-0-0-0-0----0-0-0-|-0-0-0-0-0-0----0-0-0--|| 
|-2-2-2-2-2-2----2-2-2-|-2-2-2-2-2-2----2-2-2--|| 
|-3-3-3-3-3-3----3-3-3-|-3-3-3-3-3-3----3-3-3--|| 
|----------------------|-----------------------|| 
| 
| E E   E   E  E   E     E E   E   E  E   E 
|----------------------|-----------------------|| 
|--------------5---5---|-5-5---5---5--5---5----|| 
|----------------------|-----------------------|| 
|-x-x---x---x----------|-----------------------|| 
|----------------------|-----------------------|| 
|----------------------|-----------------------|| 
| 
| W                      W 
|----------------------|-----------------------|| 
|----------------------|-----------------------|| 
|----------------------|-----------------------|| 
|----------------------|-----------------------|| 
|----------------------|-----------------------|| 
|----------------------|-----------------------|| 


 Outro 
  Gtr III 
           ~~~~ 
   a      +H.        W        W 
|------------------|--------|------| 
|-13pb15r(13)------|--------|------| 
|------------------|--------|------| 
|------------------|--------|------| 
|------------------|--------|------| 
|------------------|--------|------| 


  W          W        W     3x 
|--------||---------|-------|| 
|--------||o--------|------o|| 
|--------||---------|-------|| 
|--------||---------|-------|| 
|--------||o--------|------o|| 
|--------||---------|-------|| 


Duration Legend 
--------------- 
W - whole; H - half; Q - quarter; E - 8th; S - 16th; T - 32nd; X - 64th; a - acciaccatura 
+ - note tied to previous; . - note dotted; .. - note double dotted 
Uncapitalized letters represent notes that are staccato (1/2 duration) 
Irregular groupings are notated above the duration line 
Duration letters will always appear directly above the note/fret number it represents the 
duration for.  Duration letters with no fret number below them represent rests.  Multi- 
bar rests are notated in the form Wxn, where n is the number of bars to rest for.  Low 
melody durations appear below the staff 

Tablature Legend 
---------------- 
 h   - hammer-on 
 p   - pull-off 
 b   - bend 
 pb  - pre-bend 
 r   - bend release (if no number after the r, then release immediately) 
 /\  - slide into or out of (from/to "nowhere") 
 s   - legato slide 
 S   - shift slide 
  - natural harmonic 
n  - artificial harmonic 
n(n) - tapped harmonic 
 ~   - vibrato 
 tr  - trill 
 T   - tap 
 TP  - trem. picking 
 PM  - palm muting 
\n/  - tremolo bar dip; n = amount to dip 
 \n  - tremolo bar down 
 n/  - tremolo bar up 
/n\  - tremolo bar inverted dip 
 =   - hold bend; also acts as connecting device for hammers/pulls 
 <>  - volume swell (louder/softer) 
 x   - on rhythm slash represents muted slash 
 o   - on rhythm slash represents single note slash 

Misc Legend 
----------- 
 |  - bar 
||  - double bar 
||o - repeat start 
o|| - repeat end 
*|  - double bar (ending) 
 :  - bar (freetime) 
 $  - Segno 
 &  - Coda 
Tempo markers -  = BPM(8/16=s8/s16), where s8 = swing 8ths, s16 = swing 16ths 
	  

No existe una video leccione para esta canción

request
Aumentar uno tonoAumentar uno tono
Aumentar uno semi-tonoAumentar uno semi-tono
Disminuir uno semi-tonoDisminuir uno semi-tono
Disminuir uno tonoDisminuir uno semi-tono
LosAcordes
Buscar
auto avanzar rasgueos aumentar disminuir cambiar color esconder acordes gráficos
losacordes exhibir acordes losacordes youTube video losacordes ocultar tabs losacordes ir hacia arriba losacordes