Dave Matthews Band

Início > Dave Matth... > acordes

Lie In Our Graves (ver. 2) Tablatura

Dave Matthews Band

Dificultad:Ningún gradoNingún grado

tuner correct add songbook print version text version salvar en e-mail
acordesukuleletablaturabajobateríaarmónicaflautacavacopiano Guitar Pro
acordes

Lie In Our Graves (ver. 2)

	   Posted By: JohnnyNubChin 
 
"When I step into the light..." 
E----2-2-2------------------------------- 
B----3-3-3-------------------------------   
G----2-2-2-----x-x--------2-----x--x--x--   
D--0-----------x-x--0-2-4-------2--2--0--   
A----------4-2-x-x----------4------------ 
E-----------------------------3---------- 
 
E--2-2--------------0-0------------------   
B--3-3--------------1-1------------------ 
G--2-2-------2------2-2--0h2p0-0--------- 
D--0-0-----4---4-0--2-2-----------4-2-4-- 
A--------0----------0-0------------------ 
E---------------------------------------- 
 
Jam 
E-------------------  -------------------   
B--7--5--3----------  -8--3-------------- 
G--7--6--4--4-4--6--  -9--4--6--2--4----- 
D--x--x--x--x-x--x--  -x--x--x--0--0----- 
A--5--4--2--2-2--4--  -7--2--4--0--0----- 
E-----------3-3--5--  -------5--2--3----- 
 
 
Ending:  E  A 
 

	  

No existe una video leccione para esta canción

request
Aumentar uno tonoAumentar uno tono
Aumentar uno semi-tonoAumentar uno semi-tono
Disminuir uno semi-tonoDisminuir uno semi-tono
Disminuir uno tonoDisminuir uno semi-tono
LosAcordes
Buscar
auto avanzar rasgueos aumentar disminuir cambiar color esconder acordes gráficos
losacordes exhibir acordes losacordes youTube video losacordes ocultar tabs losacordes ir hacia arriba losacordes