Dave Days

Início > Dave Days > acordes

Sinking In Love Tablatura

Dave Days

Dificultad:Ningún gradoNingún grado

joaoewerton

tuner correct add songbook print version text version salvar en e-mail
acordesukuleletablaturabajobateríaarmónicaflautacavacopiano Guitar Pro
acordes

Sinking In Love

	  Intro 

Guitar 1 
e|-------------------------------------------------|----1.-|--------------2.-|| 
B|-------------------------------------------------|-------|-----------------|| 
G|---------4-4-4-4-6-6-6-6-------------------------|-4-----|-4---------4-4-4-|| 
D|-2-2-2-2-4-4-4-4-6-6-6-6-6-6-6-6-7-7-7-7-2-2-2-2-|-4--x8-|-4-----4-4-4-4-4-|| 
A|-2-2-2-2-2-2-2-2-4-4-4-4-6-6-6-6-7-7-7-7-2-2-2-2-|-2-----|-2-2-2-2-2-2-2-2-|| 
E|-0-0-0-0-----------------4-4-4-4-5-5-5-5-0-0-0-0-|-------|-----------------|| 
                                                               * * *gradually lift palm mute  
Guitar 2 
e|--------------------------------------------------|---1.-|---------------2.-|| 
B|--------------------------------------------------|------|------------------|| 
G|-9-9-9-9-8-8-8-8-6-6-6-6-4-4-4-4-14141414-9-9-9-9-|-8----|-9/11-----9\------|| 
D|--------------------------------------------------|---x8-|------x7----------|| 
A|-7-7-7-7-6-6-6-6-4-4-4-4-2-2-2-2-12121212-7-7-7-7-|-6----|-7/9------7\------|| 
E|--------------------------------------------------|------|------------------|| 

verse 1 (guitar 1 only) 
e|--------------------------------------------------------------------------2x-| 
B|-----------------------------------------------------------------------------| For the first note, 
G|-----------------------------------------------------------------------------| Pause the first time and  
D|-9--------------6-7-6----------6-7-6---9~-6~--6-7-6-----------6-7-6----------| keep playing the second time 
A|-7--x12-(pause)-------7-9~-4~--------7--------------7-9~-4~---------7----6~--| 
E|----------------------------------------------------------------------7~-----| 
                  * * * *        * * * *        * * * *         * * * *         
e|-11p0-12p0-7---4p0-|-----------------------------------------------| 
B|-------------0-----|-----------------------------------------------| 
G|-------------------|-------------------------------------4---------| 
D|-------------------|-6-7-6----------6-7-6---9~-6~--6-----4---------| 
A|-------------------|-------7-9~-4~--------7--------4--x8-2---------| 
E|----------------4x-|-----------------------------------------------| 
                       * * * *        * * * *        * 
Chorus 

Guitar 1 
e|------------------------------------------------------------------------------------------| 
B|------------------------------------------------------------------------------------------| 
G|-2-----------4-----6-6---4-4-2-----------4-----6-6-6-6-4-4-4-4-2-----------------6---4----| 
D|-2--x8-2-----4--x8-6-6---4-4-2--x8-2-----4--x8-6-6-6-6-4-4-4-4-2--x8-2-----6-----6---4----| 
A|-0-----2--x8-2-----4-4---2-2-0-----2--x8-2-----4-4-4-4-2-2-2-2-0-----2--x8-7--x8-4---2----| 
E|-------0---------------------------0---------------------------------0-----4--------------| 

e|------------------------------| 
B|------------------------------| 
G|-2-----------4-----6----4--4--| 
D|-2--x8-2-----4--x8-6----4--4--| 
A|-0-----2--x8-2-----4----2--2--| 
E|-------0----------------------| 

Guitar 2 
e|----------------------------------------------------------------------|-11p0-12p0-7---4p0-|-----------| 
B|----------------------------------------------------------------------|-------------0-----|-----------| 
G|-9-----4-----11-----13-13---11-11-9-----4-----8-----13131313-11111111-|-------------------|-13---11---| 
D|----x8----x8-----x8------------------x8----x8----x8-------------------|-------------------|-----------| 
A|-7-----2-----9------11-11---9--9--7-----2-----6-----11111111-9-9-9-9--|-------------------|-11---9----| 
E|----------------------------------------------------------------------|----------------3x-|-----------| 

e|----------------------------------------------| 
B|----------------------------------------------| 
G|-9-----4-----11-----13----11--11--------------| 
D|----x8----x8-----x8---------------------------| 
A|-7-----2-----9------11----9---9---------------| 
E|----------------------------------------------| 

Re-intro 

Guitar 1 
e|-------------------------------------------------|----1.-|--------------2.-|| 
B|-------------------------------------------------|-------|-----------------|| 
G|---------4-4-4-4-6-6-6-6-------------------------|-4-----|-4---------4-4-4-|| 
D|-2-2-2-2-4-4-4-4-6-6-6-6-6-6-6-6-7-7-7-7-2-2-2-2-|-4--x8-|-4-----4-4-4-4-4-|| 
A|-2-2-2-2-2-2-2-2-4-4-4-4-6-6-6-6-7-7-7-7-2-2-2-2-|-2-----|-2-2-2-2-2-2-2-2-|| 
E|-0-0-0-0-----------------4-4-4-4-5-5-5-5-0-0-0-0-|-------|-----------------|| 
                                                               * * *gradually lift palm mute  
Guitar 2 
e|--------------------------------------------------|---1.-|---------------2.-|| 
B|--------------------------------------------------|------|------------------|| 
G|-9-9-9-9-8-8-8-8-6-6-6-6-4-4-4-4-14141414-9-9-9-9-|-8----|-9/11-----9\------|| 
D|--------------------------------------------------|---x8-|------x7----------|| 
A|-7-7-7-7-6-6-6-6-4-4-4-4-2-2-2-2-12121212-7-7-7-7-|-6----|-7/9------7\------|| 
E|--------------------------------------------------|------|------------------|| 

verse 2 (guitar 1 only) 
e|------------------------------------------------------------------2x-| 
B|---------------------------------------------------------------------| 
G|---------------------------------------------------------------------| 
D|-9------6-7-6----------6-7-6---9~-6~--6-7-6-----------6-7-6----------| 
A|-7--x16-------7-9~-4~--------7--------------7-9~-4~---------7----6~--| 
E|--------------------------------------------------------------7~-----| 
   *      * * * *        * * * *        * * * *         * * * *         
e|-11p0-12p0-7---4p0-|-----------------------------------------------| 
B|-------------0-----|-----------------------------------------------| 
G|-------------------|-------------------------------------4---------| 
D|-------------------|-6-7-6----------6-7-6---9~-6~--6-----4---------| 
A|-------------------|-------7-9~-4~--------7--------4--x8-2---------| 
E|----------------4x-|-----------------------------------------------| 
                       * * * *        * * * *        * 
Chorus 2 

Guitar 1 
e|------------------------------------------------------------------------------------------| 
B|------------------------------------------------------------------------------------------| 
G|-2-----------4-----6-6---4-4-2-----------4-----6-6-6-6-4-4-4-4-2-----------------6---4----| 
D|-2--x8-2-----4--x8-6-6---4-4-2--x8-2-----4--x8-6-6-6-6-4-4-4-4-2--x8-2-----6-----6---4----| 
A|-0-----2--x8-2-----4-4---2-2-0-----2--x8-2-----4-4-4-4-2-2-2-2-0-----2--x8-7--x8-4---2----| 
E|-------0---------------------------0---------------------------------0-----4--------------| 

e|------------------------------| 
B|------------------------------| 
G|-2-----------4-----6----4--4--| 
D|-2--x8-2-----4--x8-6----4--4--| 
A|-0-----2--x8-2-----4----2--2--| 
E|-------0----------------------| 

Guitar 2 
e|----------------------------------------------------------------------|-11p0-12p0-7---4p0-|-----------| 
B|----------------------------------------------------------------------|-------------0-----|-----------| 
G|-9-----4-----11-----13-13---11-11-9-----4-----8-----13131313-11111111-|-------------------|-13---11---| 
D|----x8----x8-----x8------------------x8----x8----x8-------------------|-------------------|-----------| 
A|-7-----2-----9------11-11---9--9--7-----2-----6-----11111111-9-9-9-9--|-------------------|-11---9----| 
E|----------------------------------------------------------------------|----------------3x-|-----------| 

e|----------------------------------------------| 
B|----------------------------------------------| 
G|-9-----4-----11-----13----11--11--------------| 
D|----x8----x8-----x8---------------------------| 
A|-7-----2-----9------11----9---9---------------| 
E|----------------------------------------------| 

Bridge 

Guitar 1 
e|---------------------------------------2x-|-----------| 
B|------------------------------------------|-----------| 
G|-6------4------------------6------4-4-4-4-|-2~--------| 
D|-6--x16-4--x16-2-----6-----6--x12-4-4-4-4-|-2~--------| 
A|-4------2------2--x8-7--x8-4------2-2-2-2-|-0~--------| 
E|---------------0-----4--------------------|-0~--------| 

Guitar 2 
e|---------------|-11p0-12p0-7---4p0-|----------------|-11p0-12p0-7---4p0-| 
B|---------------|-------------0-----|----------------|-------------0-----| 
G|-9------8------|-------------------|-9------11------|-------------------| 
D|----x16----x16-|-------------------|----x16----x16--|-------------------| 
A|-7------6------|-------------------|-7------9-------|-------------------| 
E|---------------|----------------4x-|----------------|----------------4x-| 

Break (acoustic 2x) 
e|-------------------------------------------------------------| 
B|------0~------------0~------------0~------------0------0-----| 
G|-------------------------------------------------------------| 
D|----2----2---2----2----2---2----4----4---4----2------4-------| 
A|-----------------------------2~--------2---4~-----2~---------| 
E|-0~--------0---0~--------0-----------------------------------| 

Final Chorus 

Guitar 1 
e|-------------------------------------------------------------------------------------------------| 
B|-------------------------------------------------------------------------------------------------| 
G|-2-----------4-----6-6---4-4-2-----------4-----6-6-6-6-4-4-4-4-------------------6-6-6-6-4-4-4-4-| 
D|-2--x8-2-----4--x8-6-6---4-4-2--x8-2-----4--x8-6-6-6-6-4-4-4-4-------------6-----6-6-6-6-4-4-4-4-| 
A|-0-----2--x8-2-----4-4---2-2-0-----2--x8-2-----4-4-4-4-2-2-2-2---(pause)---7--x8-4-4-4-4-2-2-2-2-| 
E|-------0---------------------------0---------------------------------------4---------------------| 

e|------------------------------| 
B|------------------------------| 
G|-2-----------4-----6----4--4--| 
D|-2--x8-2-----4--x8-6----4--4--| 
A|-0-----2--x8-2-----4----2--2--| 
E|-------0----------------------| 

Guitar 2 
e|----------------------------------------------------------------------|-11p0-12p0-7---4p0-| 
B|----------------------------------------------------14141414-12121212-|-------------0-----| 
G|-9-----4-----11-----13-13---11-11-9-----4-----11----------------------|-------------------| 
D|----x8----x8-----x8------------------x8----x8----x8-11111111-9-9-9-9--|-------------------| 
A|-7-----2-----9------11-11---9--9--7-----2-----9-----------------------|-------------------| 
E|----------------------------------------------------------------------|----------------4x-| 

e|----------------------------------------------| 
B|----------------------------------------------| 
G|-9-----4-----11-----13----11--11--------------| 
D|----x8----x8-----x8---------------------------| 
A|-7-----2-----9------11----9---9---------------| 
E|----------------------------------------------| 

Outro 

Guitar 1 
e|-------------------------------------------------|-1./2./3.-|-----------------4.-|| 
B|-------------------------------------------------|----------|--------------------|| 
G|---------4-4-4-4-6-6-6-6-------------------------|-4--------|-4---------4-4-4----|| 
D|-2-2-2-2-4-4-4-4-6-6-6-6-6-6-6-6-7-7-7-7-2-2-2-2-|-4--x8----|-4-----4-4-4-4-4-2~-|| 
A|-2-2-2-2-2-2-2-2-4-4-4-4-6-6-6-6-7-7-7-7-2-2-2-2-|-2--------|-2-2-2-2-2-2-2-2-2~-|| 
E|-0-0-0-0-----------------4-4-4-4-5-5-5-5-0-0-0-0-|----------|-----------------0~-|| 
                                                                  * * *gradually lift palm mute  
Guitar 2 
e|--------------------------------------------------|---1.-|------2.-|| 
B|--------------------------------------------------|------|---------|| 
G|-9-9-9-9-8-8-8-8-6-6-6-6-4-4-4-4-14141414-9-9-9-9-|-8----|-9/11----|| 
D|--------------------------------------------------|---x8-|------x7-|| 
A|-7-7-7-7-6-6-6-6-4-4-4-4-2-2-2-2-12121212-7-7-7-7-|-6----|-7/9-----|| 
E|--------------------------------------------------|------|---------|| 

e|------------------------------------------------------------------| 
B|------------------------------------------------------------------| 
G|-13/14\1313-11111111-14141414-13131313-9-9-9-9-16161616-11--------| 
D|-----------------------------------------------------------x8-----| 
A|-11/12\1111-9-9-9-9--12121212-11111111-7-7-7-7-14141414-9---------| 
E|------------------------------------------------------------------| 

e|-----------------------------------------------------------|| 
B|-----------------------------------------------------------|| 
G|-9-9-9-9-8-8-8-8-6-6-6-6-4-4-4-4-14141414-9-9-9-9-8----9~--|| 
D|----------------------------------------------------x8-----|| 
A|-7-7-7-7-6-6-6-6-4-4-4-4-2-2-2-2-12121212-7-7-7-7-6----7~--|| 
E|-----------------------------------------------------------|| 
_____________________________________________________________________________________________________________ 
* - palm mute 
/ or \ - slide 
~ - let note ring 
	  

No existe una video leccione para esta canción

request
LosAcordes
Buscar
auto avanzar rasgueos aumentar disminuir cambiar color esconder acordes gráficos
losacordes exhibir acordes losacordes youTube video losacordes ocultar tabs losacordes ir hacia arriba losacordes