Danilo Montero

Início > Danilo Mon... > acordes

Casa De Dios Tablatura

Danilo Montero

Dificultad:PrincipiantePrincipiante

Indestructible

tuner correct add songbook print version text version salvar en e-mail
acordesukuleletablaturabajobateríaarmónicaflautacavacopiano Guitar Pro
acordes

Casa De Dios

	      Intro 
E-------------------------|-------------| 
B-------------------------|-------------| 
G-------------------------|-------------| Repeat Twice 
D-7-7-7-------------5-5-5-|-------------| 
A-5-5-5-7-7-7-9-9-9-5-5-5-|-5-5-5-5-5-5-| 
E-------5-5-5-7-7-7-3-3-3-|-3-3-3-3-3-3-| 

    Verse 
E-------------------------------------------------| 
B-------------------------------------------------| 
G-7-7-7-x-x-x-------x-x-x-------x-x-x-------x-x-x-| 
D-7-7-7-x-x-x-7-7-7-x-x-x-9-9-9-x-x-x-5-5-5-x-x-x-| 
A-5-5-5-x-x-x-7-7-7-x-x-x-9-9-9-x-x-x-5-5-5-x-x-x-| 
E-------x-x-x-5-5-5-x-x-x-7-7-7-x-x-x-3-3-3-x-x-x-| 

    Bridge 
E-----------------------------------------| 
B-----------------------------------------| 
G-7-7-7-6---------------------------------| 
D-7-7-7-6-7-7-7-6-9-9-9-8-------4-4-4-4-4-| 
A-5-5-5-4-7-7-7-6-9-9-9-8-5-5-5-4-4-4-4-4-| 
E---------5-5-5-4-7-7-7-6-3-3-3-2-2-2-2-2-| 

    Chorus 
E---------------------------| 
B---------------------------| 
G-7-7-7---------------------| 
D-7-7-7-7-7-7--9-9-9--5-5-5-| 
A-5-5-5-7-7-7--9-9-9--5-5-5-| 
E-------5-5-5--7-7-7--3-3-3-| 

    Solo 
E-----------------------------------------| 
B----------15--------------------15-13----| 
G-12-13-15----13-12--12-12-13-15-------12-| 
D-----------------------------------------| 
A-----------------------------------------| 
E-----------------------------------------| 
	  

No existe una video leccione para esta canción

request
LosAcordes
Buscar
auto avanzar rasgueos aumentar disminuir cambiar color esconder acordes gráficos
losacordes exhibir acordes losacordes youTube video losacordes ocultar tabs losacordes ir hacia arriba losacordes