Damon Albarn

Início > Damon Alba... > acordes

The History Of A Cheating Heart Tablatura

Damon Albarn

Dificultad:Ningún gradoNingún grado

aleffederico

tuner correct add songbook print version text version salvar en e-mail
acordesukuleletablaturabajobateríaarmónicaflautacavacopiano Guitar Pro
acordes

The History Of A Cheating Heart

	  

Verse pt 1 
e|---------------------------------------------------------------------------| 
B|------3--------5----7-----------3---------5-----6--------------------------| 
G|---------------------------------------------------------------------------| 
D|--------5/7-----7/9----------------5/7------7/8----------------------------| 
A|---------------------------------------------------------------------------| 
E|---3---------5------7--------3----------5--------6-------------------------|X2 
Verse pt 2 
e|---------------------------------------------------------------------------| 
B|------3--------5----7-----7---------3---------5-----6--------6-------------| 
G|---------------------------7----------------------------------6------------| 
D|--------5/7-----7/9---------9----------5/7------7/8------------8-----------| 
A|---------------------------------------------------------------------------| 
E|---3---------5------7-------------3--------5----------6--------------------|X2 
Chorus 
e|----------------------------------------{---------------------------------------}--| 
B|----5-5-5-5---3-3-3-3---7-7-7-7-7-7-7-7-{--5-5-5---3-3-3-3---5-5-5-5---1-1-1-1--}--| 
G|---5-5-5-5---4-4-4-4---7-7-7-7-7-7-7-7--{-5-5-5-5---4-4-4-4---5-5-5-5---2-2-2-2-}--| 
D|----------------------------------------{---------------------------------------}--| 
A|---3---3----2---2------5---5------------{-3---3-----2---2-----3---3-----0---0---}--| 
E|----------------------------------------{---------------------------------------}X4| 

e|------------------------------------------| 
B|----5-5-5-5----7-7-7-7----8-8-8-8-8-8-8-8-| 
G|---5-5-5-5----7-7-7-7----7-7-7-7-7-7-7-7--| 
D|------------------------------------------| 
A|---3---3------5---5------5---5---5---5----| 
E|------------------------------------------| 

verse 1+2 
Chorus 
verse 1 
Different verse I haven't got time to tab yet! 

Outro 
e|---------------------------------------------------------------------------| 
B|---587878787-10--7--5--6-6-6-6-6-6-6-6-6-6-5-5-5-5-5-5-5-5-5-5-5-5---3-----| 
G|---------------------------------------------------------------------------| 
D|---------------------------------------------------------------------------| 
A|---------------------------------------------------------------------------| 
E|---------------------------------------------------------------------------| 

Pretty Simple, If you listen to the track at the same time you'll easily pick up the timing etc. 


************************************ 

| /   slide up 
| \   slide down 
| h   hammer-on 
| p   pull-off 
| ~   vibrato 
| +   harmonic 
| x   Mute note 
| b   Bend 
| pb  Pre-bend 
| br  Bend release 
| pbr Pre-bend release 
| brb Bend release bend 

************************************ 
	  

No existe una video leccione para esta canción

request
LosAcordes
Buscar
auto avanzar rasgueos aumentar disminuir cambiar color esconder acordes gráficos
losacordes exhibir acordes losacordes youTube video losacordes ocultar tabs losacordes ir hacia arriba losacordes