Daft Punk

Início > Daft Punk > acordes

Instant Crush Tablatura

Daft Punk

Dificultad:ExpertoExperto

adalgomes

tuner correct add songbook print version text version salvar en e-mail
acordesukuleletablaturabajobateríaarmónicaflautacavacopiano Guitar Pro
acordes

Instant Crush

	  
Verse    
e|-3-3-3-1---1-1-0---0-0-1---1-1---------------------------------------------| 
B|-1-1-1-1---1-1-1---1-1-1---1-1---3-3-3-1---1-1-0---0-0-1---1-1-------------| 
G|-2-2-2-2---2-2-2---2-2-2---2-2---2-2-2-2---2-2-2---2-2-2---2-2-------------| 
D|-3-3-3-3---3-3-3---3-3-3---3-3---0-0-0-0---0-0-0---0-0-0---0-0-------------| 
A|---------------------------------------------------------------------------| 
E|---------------------------------------------------------------------------| 

e|---------------------------------------------------------------------------| 
B|-3-3-3-1---1-1-0---0-0-1---1-1---3-3-3-1---1-1-0---0-0-1---1-1-------------| 
G|-2-2-2-2---2-2-2---2-2-2---2-2---0-0-0-0---0-0-0---0-0-0---0-0-------------| 
D|-2-2-2-2---2-2-2---2-2-2---2-2---0-0-0-0---0-0-0---0-0-0---0-0-------------| 
A|-0-0-0-0---0-0-0---0-0-0---0-0---2-2-2-2---2-2-2---2-2-2---2-2-------------| 
E|---------------------------------3-3-3-3---3-3-3---3-3-3---3-3-------------| 

Repeat some times 

Chorus 
   Am               G    F                    Em  Dm                   Am  G   
e|------------------3----1---1-1--1-------1---0---1---1-1--1-------1-------3-| 
B|-1---1--x-x--1-x--3-x--1---1-1--1--x-x--1-x-0-x-3---3-3--3--x-x--3-x-1-x-3-| 
G|-2---2--x-x--2-x--0-x--2---2-2--2--x-x--2-x-0-x-2---2-2--2--x-x--2-x-2-x-0-| 
D|-2---2--x-x--2-x--0-x--3---3-3--3--x-x--3-x-2-x-0---0-0--0--x-x--0-x-2-x-0-| 
A|-0---0--x-x--0-x--2-x--3---3-3--3--x-x--3-x-2-x-------------x-x----x-0-x-2-| 
E|------------------3----1---1-1--1-------1---0----------------------------3-| 

                    Em 
e|--3-3--3---3-3-3-----------------------------------------------------------| 
B|--3-3--3---3-3-3-----------------------------------------------------------| 
G|--0-0--0---0-0-0-----------------------------------------------------------| 
D|--0-0--0---0-0-0-----------------------------------------------------------| 
A|--2-2--2---2-2-2------0h3--------------------------------------------------| 
E|--3-3--3---3-3-3--0h3-----0h3----------------------------------------------| 

Also repeated more than once. 


Solo (not relative to capo!) Solo features two guitars, hope I figured it 
out alright. 

- 1 - 
e|-----------------------------------18------20------21------21b23-----------| 
B|--------pb14r13-11----pb18r16-14-------18------18------18------------------| 
G|---------------------------------------------------------------------------| 
D|---------------------------------------------------------------------------| 
A|---------------------------------------------------------------------------| 
E|---------------------------------------------------------------------------| 

- 2 - 
e|---------------------------------------------------------------------------| 
B|-----------------------------------------------------------14b16-----------|  
G|---------------------------------------------------------------------------| 
D|---------------------------------------------------------------------------| 
A|---------------------------------------------------------------------------| 
E|-1/6~----------------------------------------------------------------------| 

                                   **** 

- 1 - 
e|-20h21p20--18------20h21p20------------------------------------------13----| 
B|---------------18----------------------9/11/13--11~----13b14r13--11--------| 
G|---------------------------------------------------------------------------| 
D|---------------------------------------------------------------------------| 
A|---------------------------------------------------------------------------| 
E|---------------------------------------------------------------------------| 

- 2 - 
e|---------------------------------------------------------------------------| 
B|-13h14p13--11-----------------6h7/9----------------------------------------| 
G|---------------10--8h10p8---------------------------------1----------3-----| 
D|------------------------------------------------3------4-----3-------------| 
A|---------------------------------------------------------------------------| 
E|---------------------------------------------------------------------------| 

                                   **** 
                         
- 1 - 
e|---------------------------------------------------------------------------| 
B|-11--13b14~-----------13h14p13\11h13p11-7h9p7--6--4---10h11p10--11/14-11---| 
G|---------------------------------------------------------------------------| 
D|---------------------------------------------------------------------------| 
A|---------------------------------------------------------------------------| 
E|---------------------------------------------------------------------------| 

- 2 - 
e|---------------------------------------------------------------------------| 
B|---------------------------------------------------------------------------| 
G|---------------------------------------------------------------------------| 
D|-3---6~---------------1~---------------------------------------------------| 
A|---------------------------------------------------------------------------| 
E|---------------------------------------------------------------------------| 

                                   **** 

- 1 - 
e|-13h16p13------------------------------------------------------------------| 
B|---------------------------------------------------------------------------| 
G|---------------------------------------------------------------------------| 
D|---------------------------------------------------------------------------| 
A|---------------------------------------------------------------------------| 
E|---------------------------------------------------------------------------| 

                    Singing starts right after guitar 1 is finished. 
- 2 -               
e|---------------------------------------------------------------------------| 
B|---------------------------------------------------------------------------| 
G|---------------------------------------------------------------------------| 
D|------------------1--------------------------------------------------------| 
A|-----------------------4~--------------------------------------------------| 
E|---------------------------------------------------------------------------| 
 
	  

there is a video lesson for this song
view full video
Aumentar uno tonoAumentar uno tono
Aumentar uno semi-tonoAumentar uno semi-tono
Disminuir uno semi-tonoDisminuir uno semi-tono
Disminuir uno tonoDisminuir uno semi-tono
LosAcordes
Buscar
auto avanzar rasgueos aumentar disminuir cambiar color esconder acordes gráficos
losacordes exhibir acordes losacordes youTube video losacordes ocultar tabs losacordes ir hacia arriba losacordes