Cueshe

Início > Cueshe > acordes

Love me now hate me soon Tablatura

Cueshe

Dificultad:Ningún gradoNingún grado

europeu

tuner correct add songbook print version text version salvar en e-mail
acordesukuleletablaturabajobateríaarmónicaflautacavacopiano Guitar Pro
acordes

Love me now hate me soon

	  Intro: 
GTR I & II  
Effect:Distortion 
e|------------------------------------------------------------------------| 
B|------------------------------------------------------------------------| 
G|-6-------6--9s11--9-----6-----------------6-------6--9s11--9--6---------| 
D|-6-------6--9s11--9-----6---------9--9s8--6-------6--9s11--9--6--------9| 
A|-4-5s7-0-4--7s9---7-----4--5s7-0--9--7s6--4-5s7-0-4--7s9---7--4-5s7-0--9| 
E|---3s5-0-------------------3s5-0--7---------3s5-0---------------3s5-0--7| 
 
Verse I: 
GTR I  
Effect:Mild Distortion 
E|--------------------------------------------------| 
B|--------------------------------------------------| 
G|-6---6---7h9p7--6-----6h8p6--6---6---7h9p7--6-----| 
D|-6-7-6-7------9-6-7-9------9-6-7-6-7------9-6-7--9| 
A|-4-7-4-7--------4-7-9--------4-7-4-7--------4-7--9| 
E|---5---5----------5-7----------5---5----------5--7| 
 PM........       ...           ......        ... 
 
Chorus: 
GTR I & II  
Effect:Distortion 
e|-----------------------------| 
B|-----------------------------| 
G|-6--------9----6-------------| x2 
D|-6--------9-9--6-------9--9-8| 
A|-4-5s7-0--7-9--4-5s7-0-9--7-6| 
E|---3s5-0----7----3s5-0-7-----| 
 
Then repeat intro: 
e|------------------------------------------------------------------------| 
B|------------------------------------------------------------------------| 
G|-6-------6--9s11--9-----6-----------------6-------6--9s11--9--6---------| 
D|-6-------6--9s11--9-----6---------9--9s8--6-------6--9s11--9--6--------9| 
A|-4-5s7-0-4--7s9---7-----4--5s7-0--9--7s6--4-5s7-0-4--7s9---7--4-5s7-0--9| 
E|---3s5-0-------------------3s5-0--7---------3s5-0---------------3s5-0--7| 
 
Verse II: 
GTR I  
Effect:Mild Distortion 
E|--------------------------------------------------| 
B|--------------------------------------------------| 
G|-6---6---7h9p7--6-----6h8p6--6---6---7h9p7--6-----| 
D|-6-7-6-7--------6-7-9------9-6-7-6-7--------6-----| 
A|-4-7-4-7--------4-7-9--------4-7-4-7--------4-7--9| 
E|---5---5----------5-7----------5---5----------5--7| 
 PM........       ...           ......        ... 
 
Chorus: 
GTR I & II 
Effect:Distortion 
e|-----------------------------| 
B|-----------------------------| 
G|-6--------9----6-------------| x2 
D|-6--------9-9--6-------9--9-8| 
A|-4-5s7-0--7-9--4-5s7-0-9--7-6| 
E|---3s5-0----7----3s5-0-7-----| 
 
 
Solo/Adlib: 
GTR I  
Effect:Distortion & Chorus 
e|----------------------------------------------------------------| 
B|-14~-17-19-17h19-19h21--19-17-19-17-16-17-16-12-14-17---12-14---| 
G|------------------------------------------------------13------11| 
D|----------------------------------------------------------------| 
A|----------------------------------------------------------------| 
E|----------------------------------------------------------------| 
 
e|-------------------------------------12-14-12h14-14h16-19~~-----| 
B|-7-7-7s5-5-5s4-4-4s2-2-2-2-4-5-5h7h9----------------------------| 
G|----------------------------------------------------------------| 
D|----------------------------------------------------------------| 
A|----------------------------------------------------------------| 
E|----------------------------------------------------------------| 
 
e|-21-21-21s19-19-19s17-17-17s16-16-16--14-14-12-11---------------| 
B|--------------------------------------------------12-14~~~------| 
G|----------------------------------------------------------------| 
D|----------------------------------------------------------------| 
A|----------------------------------------------------------------| 
E|----------------------------------------------------------------| 
 
GTR II 
Effect:Distortion 
e|------------------------------------------------------------------------| 
B|------------------------------------------------------------------------| 
G|-6-------6--9s11--9-----6-----------------6-------6--9s11--9--6---------| 
D|-6-------6--9s11--9-----6---------9--9s8--6-------6--9s11--9--6--------9| 
A|-4-5s7-0-4--7s9---7-----4--5s7-0--9--7s6--4-5s7-0-4--7s9---7--4-5s7-0--9| 
E|---3s5-0-------------------3s5-0--7---------3s5-0---------------3s5-0--7| 
 
Verse III: 
GTR I  
Effect:Mild Distortion 
E|---------------------| 
B|---------------------| 
G|-6---6---7h9p7--6----| 
D|-6-7-6-7------9-6-7-9| 
A|-4-7-4-7--------4-7-9| 
E|---5---5----------5-7| 
 PM........       ...   
 
Chorus: 
GTR I & II 
Effect:Distortion 
e|-----------------------------| 
B|-----------------------------| 
G|-6--------9----6-------------| x4 
D|-6--------9-9--6-------9--9-8| 
A|-4-5s7-0--7-9--4-5s7-0-9--7-6| 
E|---3s5-0----7----3s5-0-7-----| 
 
Outro: 
GTR I & II 
Effect:Distortion 
e|-----------------------------------| 
B|-----------------------------------| 
G|-6-------6--9s11--9-----6----------| 
D|-6-------6--9s11--9-----6---------9| 
A|-4-5s7-0-4--7s9---7-----4--5s7-0--9| 
E|---3s5-0-------------------3s5-0--7| 
***************************************************************************** 
Tablature Legend: 
s:Slide 
h:Hammer 
p:Pull-off 
Pm....:Palm-Mute 
~:Vibrato 
 
 
 

	  

No existe una video leccione para esta canción

request
LosAcordes
Buscar
auto avanzar rasgueos aumentar disminuir cambiar color esconder acordes gráficos
losacordes exhibir acordes losacordes youTube video losacordes ocultar tabs losacordes ir hacia arriba losacordes