Creed

Início > Creed > acordes

Don't Stop Dancing Tablatura

Creed

Dificultad:IntermedioIntermedio

tuner correct add songbook print version text version salvar en e-mail
acordesukuleletablaturabajobateriaarmónicaflautacavacopiano Guitar Pro
acordes

Don't Stop Dancing

Áño: 2001 - Álbum: Greatest Hits (w/ Bonus DVD)

	  Album: Weathered 
Transcribed by: Halloko (S?Dreijer Madsen) 
Email: [email protected] 
 
 
BTW, you will have to listen to the rhytm yourself, coz it's pretty difficult to  
write down...;-) So when I just write the coord once it probably means that u  
need to apply the rhytm yourself.. 
 
 
-||--3-------------5-------------3---------------||--------------------------- 
-||--3-------------5-------------3---------------||--------------------------- 
-||*-0-------------7-------------5---5------5-5-*||--------------------------- 
-||*-0-------------7-------------5---4------4-5-*||--------------------------- 
-||--2-------------5-------------3---2------2-3--||--------------------------- 
-||--3-------------------------------------------||--------------------------- 
                                   repeat 3 times||   
                            
 Pre Chorus       |Distortion kicks in -> 
-||-0-0--0--0-0-0---3-------|--(0)------|-----------|| 
-||-0-0--0--1-1-0---3-------|--(0)------|-----------|| 
-||-2-2--2--2-2-2---5-------|---0-------|---5-------|| 
-||-2-2--2--2-2-2---5-------|---2-------|---5-------|| 
-||-0-0--0--0-0-0---3-------|---2-------|---3-------|| 
-||-------------------------|---0-------|-----------|| 
                                                                               
 Chorus 
-||----------------------------------|---------------------------------------- 
-||----------------------------------|---------------------------------------- 
-||-4--------7---------6---------5---|--4-----7-----6-----5------------------- 
-||-5--------7---------7---------5---|--5-----7-----7-----5------------------- 
-||-5--------5---------4---------3---|--5-----5-----4-----3------------------- 
-||-3--------------------------------|--3------------------------------------- 
                                                                               
 Vers (no distortion) 
 NOTE: The following (the vers) can be played in another way than I have tabbed.. 
       My tab matches the correct tones but I think it can be played different..;-) 
-||--3-3---0-------0--------------------0-3h------|| 
-||--3-3---3-----3---3-----3-3--3---3-------3-----|| 
-||*-0-0---2---0-------0---0-0--0-----0-------0--*|| 
-||*-0-0---0-0-------------2-2--0----------------*|| 
-||--4-4-------------------3-3--2-2---------------|| 
-||--3-3------------------------------------------|| 
                                    repeat 5 times|| 
                          
 Pre Chorus		    |Distortion kicks in -> 
-||-0-0--0--0-0-0---3-------|---0-------|---------|| 
-||-0-0--0--1-1-0---3-------|---0-------|---------|| 
-||-2-2--2--2-2-2---5-------|---0-------|---5-----|| 
-||-2-2--2--2-2-2---5-------|---2-------|---5-----|| 
-||-0-0--0--0-0-0---3-------|---2-------|---3-----|| 
-||-------------------------|---0-------|---------|| 
           
  
 NOTE: Guitar 1 and 2 should be played at the same time..                                                                   
 Chorus (Guitar 1) 
-||----------------------------------|--------------------------------| 
-||----------------------------------|--------------------------------| 
-||-4--------7---------6---------5---|--4-----7-----6-------5---------| 
-||-5--------7---------7---------5---|--5-----7-----7-------5---------| 
-||-5--------5---------4---------3---|--5-----5-----4-------3---------| 
-||-3--------------------------------|--3-----------------------------| 
                
                                                        
 Chorus (Guitar 2) 
-||----------------------------------|-------------10/12-14-15-17-19---------- 
-||----------------------------------|---------------------------------------- 
-||----------------------------------|---------------------------------------- 
-||----------------------------------|---------------------------------------- 
-||----------------------------------|---------------------------------------- 
-||----------------------------------|---------------------------------------- 
                                                                       
 
-||-10-------------10------------10-12b---10------------10-------------10-12b- 
-||-------10-12-10------10-12-10---------------10-12-10-------10-12-10-------- 
-||--------------------------------------------------------------------------- 
-||--------------------------------------------------------------------------- 
-||--------------------------------------------------------------------------- 
-||--------------------------------------------------------------------------- 
                                                                               
 
-||-10-------------10------------10-12-------------------------------------|| 
-||-------10-12-10------10-12-10-------12-10--------10-12-10b11------------|| 
-||------------------------------------------12--12---------------12-11----|| 
-||------------------------------------------------------------------------|| 
-||------------------------------------------------------------------------|| 
-||------------------------------------------------------------------------|| 
                                                                               
 
-||------------------11b12-10-||--------------------|-----------------| 
-||---------------------------||--------------------|-----------------| 
-||-11h12p11-9--9-------------||--7-7--6---5----4---|--7-7--6----5-5--| 
-||---------------12----------||--7-7--7---5----5---|--7-7--7----5-5--| 
-||---------------------------||--5-5--4---3----5---|--5-5--4----3-3--| 
-||---------------------------||----------------3---|-----------------| 
                                     REPEAT 3 times |                           
 
 
 NOTE:This small section continues until the end of the song where the distortion 
      is left out (see the next section..) 
-||--------------------------|| 
-||--------------------------|| 
-||*--4----7-----6------5---*|| 
-||*--5----7-----7------5---*|| 
-||---5----5-----4------3----|| 
-||---3----------------------|| 
                                                                               
 
 Outro 
-||--3-3---2----0-----3-3--|| 
-||--3-3---3----1-----3-3--|| 
-||--0-0---2----0-----0-0--|| 
-||--0-0---0----2-----0-0--|| 
-||--2-2--------3-----2-2--|| 
-||--3-3--------------3-3--|| 
             repeat 2 times||                                                          
 
 
Hope u liked the tab.. coz this song is just INCREDIBLY WELL WRITTEN BY CREED.. 
They have my respect..;-) 
 

	  

dont-stop-dancing-by-creed Play

Existe una video leccione para esta canción

view more
LosAcordes
Buscar
auto avanzar rasgueos aumentar disminuir cambiar color esconder acordes gráficos
losacordes exhibir acordes losacordes youTube video losacordes ocultar tabs losacordes ir hacia arriba losacordes