Catupecu Machu

Início > Catupecu M... > acordes

Perfectos Cromosomas Tablatura

Catupecu Machu

Dificultad:PrincipiantePrincipiante

facun

tuner correct add songbook print version text version salvar en e-mail
acordesukuleletablaturabajobateríaarmónicaflautacavacopiano Guitar Pro
acordes

Perfectos Cromosomas

	  INTRO  

 Bmaj7          Bmaj7        Emaj7      D#maj7      Gmaj7 

e: --0---------------0-----------0-----------x-----------x-------------------- 
B: --7---------------7-----------5-----------4-----------4--------4----4--4--- 
G: --8---------------8-----------x-----------x-----------x-------------------- 
D: --9---------------9-----------6-----------5-----------6-------------------- 
A: --9---------------9-----------7-----------6-----------6-------------------- 
E: --x---------------x-----------x-----------x-----------x-------------------- 

Nara na Nara na Nara naraaaaaaaa 


    Bmaj7          Bmaj7       Emaj7       D#maj7      Gmaj7 

e: --0---------------0-----------0-----------x-----------x-------------------- 
B: --7---------------7-----------5-----------4-----------4--------4----4--4--- 
G: --8---------------8-----------x-----------x-----------x-------------------- 
D: --9---------------9-----------6-----------5-----------6-------------------- 
A: --9---------------9-----------7-----------6-----------6-------------------- 
E: --x---------------x-----------x-----------x-----------x-------------------- 

Nara na Nara na Nara naraaaaaaaa 


    Bmaj7          Bmaj7        Emaj7       D#maj7     Gmaj7 

e: --0---------------0-----------0-----------x-----------x-------------------- 
B: --7---------------7-----------5-----------4-----------4--------4----4--4--- 
G: --8---------------8-----------x-----------x-----------x-------------------- 
D: --9---------------9-----------6-----------5-----------6-------------------- 
A: --9---------------9-----------7-----------6-----------6-------------------- 
E: --x---------------x-----------x-----------x-----------x-------------------- 



Bmaj7 
      Y aunque me cueste morir 

y aunque me cueste dar, 

darme cuenta que otro sentido 
           Emaj7 
hay que tomar 

Gmaj7 
        Somos enigmas para descifrar, 
                               Emaj7 
perfectos cromosomas para alterar 

Noro noro noro noro 



IGUAL QUE EL INTRO: 

Bmaj7        Bmaj7      Emaj7       D#maj7     Gmaj7 



Bmaj7 
      Y aunque te cueste decir todo lo que pensás, 

mirando el mapa en tu rostro 
              Emaj7 
se que atravesás 

Gmaj7 
       El mas gigante océano, y vas, 

viajas profundo y lejos 
         Emaj7 
y me llevás. 

Noro noro noro noro 



IGUAL QUE EL INTRO: 

Bmaj7        Bmaj7      Emaj7       D#maj7     Gmaj7 



SOLO DE BAJO 



(A continuación el tema va en los mismo tonos pero las cuerdas 
 van sordinadas tapando el Puente trasero con el costado 
 de la palma de la mano{palm mute}) 



Bmaj7 
      Y aunque este viaje de dos pasajeros va 

tomando rumbo incierto, 
                    Emaj7 
con cierta complicidad 

Gmaj7 
        Torcer las vías y descarrilar, 

crear un reino antiguo, 
           Emaj7 
Pero hoy acá. 

Noro noro noro noro 


Bmaj7 
     Nara na Nara na Nara naraaaaaaaa  (Barum barum bam) 

	  

No existe una video leccione para esta canción

request
Aumentar uno tonoAumentar uno tono
Aumentar uno semi-tonoAumentar uno semi-tono
Disminuir uno semi-tonoDisminuir uno semi-tono
Disminuir uno tonoDisminuir uno semi-tono
LosAcordes
Buscar
auto avanzar rasgueos aumentar disminuir cambiar color esconder acordes gráficos
losacordes exhibir acordes losacordes youTube video losacordes ocultar tabs losacordes ir hacia arriba losacordes