Cashmere Cat

Início > Cashmere C... > acordes

Mirror Maru Tablatura

Cashmere Cat

Dificultad:Ningún gradoNingún grado

andrsouza

tuner correct add songbook print version text version salvar en e-mail
acordesukuleletablaturabajobateríaarmónicaflautacavacopiano Guitar Pro
acordes

Mirror Maru

	  
Tuning Eb. not standard. Make sure to down tune half a step down. 
|-12-12-------------------7--|-12-12--------------9--9--7--| 
|-10-10--12-12---10-10-10-10-|-10-10--12-12---10--10-10-10-| 
|-11-11--9--9----7--7--7--7--|-11-11--9--9----7---7--7--7--| 
|--------11-11---9--9--9-----|--------11-11---9------------| 
|-9--9-----------------------|-9--9------------------------| 
|--------9--9----7--7--7-----|--------9--9----7------------| 
.. 
.. 
|--------12-------------------------------12-------------------9-| 
|------10-----------12--------10--------10-----------12----------| 
|---11------------9---------7--------11------------9---------7---| 
|--------------11---------9---------------------11---------9-----| 
|-9--------------------------------9-----------------------------| 
|------------9----------7---------------------9----------7-------| 
.. 
or with a  
Capo on the 7th fret. read it as if 
the capo was the start of the fretboard. 
.. 
|-5-5---------------|-5-5----------2-2-0-| 
|-3-3--5-5--3-3-3-5-|-3-3--5-5--3--3-3-3-| 
|-4-4--2-2--0-0-0-0-|-4-4--2-2--0--0-0-0-| 
|------4-4--2-2-2-2-|------4-4--2--------| 
|-2-2---------------|-2-2----------------| 
|------2-2--0-0-0---|------2-2--0--------| 
.. 
.. 
|------5---------------|-------5-------------2-| 
|----3--------5-----3--|-----3--------5--------| 
|--4--------2------0---|---4--------2------0---| 
|---------4------2-----|----------4------2-----| 
|-2--------------------|--2--------------------| 
|--------2------0------|---------2------0------| 
	  

No existe una video leccione para esta canción

request
LosAcordes
Buscar
auto avanzar rasgueos aumentar disminuir cambiar color esconder acordes gráficos
losacordes exhibir acordes losacordes youTube video losacordes ocultar tabs losacordes ir hacia arriba losacordes