Calcinha Preta

Início > Calcinha P... > acordes

Hoje à Noite Tablatura

Calcinha Preta

Dificultad:Ningún gradoNingún grado

Guilhermo

tuner correct add songbook print version text version salvar en e-mail
acordesukuleletablaturabajobateríaarmónicaflautacavacopiano Guitar Pro
acordes

Hoje à Noite

	  e ---------------------------------------------14----14----14----14----- -------------  
B --14h16--14h16--14----14h16-~~----------14----14----12----11---------- -----------  
G -----------------------15--------------------------------------------- --13-~~------------  
D ---------------------------------------------------------------------- --------------  
A ---------------------------------------------------------------------- --------------  
E ---------------------------------------------------------------------- --------------  
 
 
 
e ---------------------------------------------------------------------- --------------  
B -----------------------------------------14-16-14-------17/18--17/18-- 16-14------------  
G ----------------------15-16-~~\-------------------16-15--------------- ------16-~~---  
D -16-15-13---13-16-------------------------------------------------- --------------  
A ---------------------------------------------------------------------- --------------  
E ---------------------------------------------------------------------- --------------  
 
 
 
e ------------------------------------------------9--------------9------ ---------------------  
B ---------14--12--11h12p11\9h11--------------11--9~~-----9\7~~--------- -------------  
G -----11--------------------------------------------------------------- --------------  
D -/11------------------------------------------------------------------ --------------  
A ---------------------------------------------------------------------- --------------  
E ---------------------------------------------------------------------- --------------  
 
 
 
e -9---9----9-9/11-9-11/13-----13/14-16-16-------16-14-16/20~~---------- --------------  
B ---7------------------------------------------------------------------ --------------  
G ---------------------------------------------------------------------- --------------  
D ---------------------------------------------------------------------- --------------  
A ---------------------------------------------------------------------- --------------  
E ---------------------------------------------------------------------- --------------  
 
 
 
 
h - hammer-on  
p - pull-off  
t - tap  
b - bend  
r - release  
~ - Vibrato  
(x) - ghost note  
\- slide down  
/- slide up 
 
 
Pode ter alguns errinhos! 
 
Colaboradores: 
Alex 
Guilherme - [email protected] 

	  

No existe una video leccione para esta canción

request
LosAcordes
Buscar
auto avanzar rasgueos aumentar disminuir cambiar color esconder acordes gráficos
losacordes exhibir acordes losacordes youTube video losacordes ocultar tabs losacordes ir hacia arriba losacordes