Cage The Elephant

Início > Cage The E... > acordes

Flow Tablatura

Cage The Elephant

Dificultad:IntermedioIntermedio

fernsantana

tuner correct add songbook print version text version salvar en e-mail
acordesukuleletablaturabajobateríaarmónicaflautacavacopiano Guitar Pro
acordes

Flow

	  

e|-----------------------------------------------| 
B|-----------------------------------------------| 
G|--11-11--9-11\14~--------11-11--9-11-9---------| 
D|---------------------------------------11~-----| 
A|-----------------------------------------------| 
E|-----------------------------------------------| x4 

e|-----------------------| 
B|------------------10*--| 
G|-11~~~-----9~~~------11| 
D|-----------------------| 
A|-----------------------| 
E|-----------------------| x2 
   *don't repeat second time 
e|------------------------------|--------------------| 
B|------------------------------|--------------------| 
G|-11~~--9~~--------------------|--------------------| 
D|------------9\11-11---9\11-11-|--9\11-11---9\11-11-| 
A|------------------------------|--------------------| 
E|------------------------------|--------------------| 
                              x3  add this on x4 
e|----9------7-----------------------| 
B|-----------------------------------| 
G|-11------9-------------------------| 
D|----------------9\11-14---9\11-14--| 
A|-----------------------------------| 
E|-----------------------------------| x2 

e|-----------------------| 
B|-----------------10----| 
G|-11~~~-----9~~~------11| 
D|-----------------------| 
A|-----------------------| 
E|-----------------------| 

e|------------------------------|--------------------| 
B|------------------------------|--------------------| 
G|-11~~--9~~--------------------|--------------------| 
D|------------9\11-11---9\11-11-|--9\11-11---9\11-11-| 
A|------------------------------|--------------------| 
E|------------------------------|--------------------| 
                              x3  add this on x4 
e|----9------7-----------------------| 
B|-----------------------------------| 
G|-11------9-------------------------| 
D|----------------9\11-14---9\11-14--| 
A|-----------------------------------| 
E|-----------------------------------| x2 

e|-------------------------12----------------------------------| 
B|-12----14-----12-1----14-------------------------------------| 
G|----------------------------11------14------11------14/16----| 
D|----------------------------------------------------------14-| 
A|-------------------------------------------------------------| 
E|-------------------------------------------------------------| x2 

e|------------------------------| 
B|------------------------------| 
G|-11~~--9~~--------------------| 
D|------------9\11-11---9\11-11-| 
A|------------------------------| 
E|------------------------------| x4 

e|---------------------------------------------| 
B|----------10-12-------9-11-----------9-------| 
G|-9-11~----------9~---------11~----11---9~----| 
D|---------------------------------------------| 
A|---------------------------------------------| 
E|---------------------------------------------| 

e|---------------------------------------------| 
B|----------10-12-------9-11-----------9-------| 
G|-6\11~----------9~---------11~----11---9~----| 
D|---------------------------------------------| 
A|---------------------------------------------| 
E|---------------------------------------------| 

e|-------------------------------------------------| 
B|----------10-12----------------------------------| 
G|-6/11~----------9~---------11~----9~---7~---7~---| 
D|-------------------------------------------------| 
A|-------------------------------------------------| 
E|-------------------------------------------------| 
	  

No existe una video leccione para esta canción

request
LosAcordes
Buscar
auto avanzar rasgueos aumentar disminuir cambiar color esconder acordes gráficos
losacordes exhibir acordes losacordes youTube video losacordes ocultar tabs losacordes ir hacia arriba losacordes