Cage The Elephant

Início > Cage The E... > acordes

Always Something Tablatura

Cage The Elephant

Dificultad:Ningún gradoNingún grado

gustsilva

tuner correct add songbook print version text version salvar en e-mail
acordesukuleletablaturabajobateríaarmónicaflautacavacopiano Guitar Pro
acordes

Always Something

	  

Intro: 
Guitar 1: 
e|--------------|  
B|--------------| 
G|--------------| 
D|--------------|x2 
A|--9~-8-10-11~-| 
E|--------------| 

Guitar 2: 

e|--------|  
B|--------| 
G|--5555--| 
D|--5555--|x4 
A|--3333--| 
E|--------| 

Verse 1: 
Guitar 1: 
e|--------------|  
B|--------------| 
G|--------------| 
D|--------------|x2 
A|-9~-11~-------| 
E|--------------| 

Guitar 2: 

e|--------|  
B|--------| 
G|--5555--| 
D|--5555--|x4 
A|--3333--| 
E|--------| 




Chorus: No Guitar 

Intro 






Verse 2: 
Guitar 1: 
e|-----------------|  
B|-----------------| 
G|-7~-9~-----------| 
D|-----------------| 
A|--------9~-11~---| 
E|-----------------| 

Guitar 2: 

e|--------|  
B|--------| 
G|--8888--| 
D|--8888--|x4 
A|--6666--| 
E|--------| 










Solo: 
Guitar 1: 
e|-------------------10------------------------|  
B|--9-------------------9------9---------------| 
G|---10---10---10---------1010---10------------| 
D|-----99----9----------------------9----------|x2 
A|---------------------------------------------| 
E|---------------------------------------------| 

e|----------------------|  
B|----------------------| 
G|--8888-6666-----------| 
D|--8888-6666-666666----| 
A|--6666-4444-666666----| 
E|------------444444----| 


Guitar 2: 
e|--------------|  
B|--------------| 
G|-66666--------|x1 
D|--------------| 
A|--------------| 
E|--------------| 


e|-97-------------------|  
B|---109----------------| 
G|-------97-8--777777---| 
D|-------------777777---|x4 
A|-------------555555---| 
E|----------------------| 





Bridge: 
In the bottom of the drai   but it never works It?s tried it?s tried 
e|-----------------------------------------------------------|  
B|-----------------------------------------------------------| 
G|--55555-------------------555555555555555----55555---55555-| 
D|--55555-------------------555555555555555----55555---55555-| 
A|--33333-------------------333333333333333----33333---33333-| 
E|-----------------------------------------------------------| 

(Guitar 1 solo x1) 
	  

No existe una video leccione para esta canción

request
LosAcordes
Buscar
auto avanzar rasgueos aumentar disminuir cambiar color esconder acordes gráficos
losacordes exhibir acordes losacordes youTube video losacordes ocultar tabs losacordes ir hacia arriba losacordes