Buddy guy

Início > Buddy guy > acordes

Sstone crazy Tablatura

Buddy guy

Dificultad:FácilFácil

europeu

tuner correct add songbook print version text version salvar en e-mail
acordesukuleletablaturabajobateríaarmónicaflautacavacopiano Guitar Pro
acordes

Sstone crazy

	   
 
||-----------10------------------------------------------| 
||--------10----13-10-13-10h13p10----10--13-10----10-----| 
||--10-11-------------------------12-----------12----10b-| 
||-------------------------------------------------------| 
||-------------------------------------------------------| 
||-------------------------------------------------------| 
 
-------------------------------------------------| 
--------------13b--10----------------------------| 
----------------------12-10----------------------| 
--12-10-12------------------12-12----------------| 
----------------------------------12----10\---8--| 
-------------------------------------------------| 
 
|-------------------------10--|--------------------------| 
|-------------------------10--|--------------------------| 
|*----------------------------|--------------------------| 
|*----------------------------|--------------------------| 
|-----------------------------|--------------------------| 
|-----------------------------|--------------------------| 
 
----------------------------------| 
----------------------13b10----10-| 
----------------------------12----| 
----------------------------------| 
----------------------------------| 
----------------------------------| 
 
-----------------------10------------------------------| 
--------------------10----13-10-13-13p10---------------| 
--11----------10h11----------------------12--10--------| 
-----12-12---------------------------------------------| 
-------------------------------------------------------| 
-------------------------------------------------------| 
 
----------------------10----|--------------------------| 
----------------------10----|--------------------------| 
----------------------------|--------------------------| 
----------------------------|--------------------------| 
----------------------------|--------------------------| 
----------------------------|--------------------------| 
 
--------------------------10-------------| 
--------------------------10-13p10----10-| 
----------12b-------------11-------12----| 
-----------------------12----------------| 
-----------------------------------------| 
-----------------------------------------| 
 
-----------------------10-----------------------------------| 
--------------------10----13-10-13-13p10----10--------------| 
--10-11-------10h11----------------------12----12p10--------| 
--------12~-------------------------------------------------| 
------------------------------------------------------------| 
------------------------------------------------------------| 
 
 
-----------------------10-13p10----10---|--------------------------| 
------------------13b-----------13------|--------------------------| 
----------------------------------------|--------------------------| 
----------------------------------------|--------------------------| 
----------------------------------------|--------------------------| 
----------------------------------------|--------------------------| 
 
----------------------------------------------------------------| 
---------------------------------------------------13----10-----| 
------------10-11-12-11-12-11-12-11-12-11-12-11-12----12----10b-| 
---------12-----------------------------------------------------| 
----------------------------------------------------------------| 
----------------------------------------------------------------| 
 
--------------------------------------------------|| 
--------------------------------------------------|| 
--------------12b12-10---------------------------*|| 
--12-12-12~------------12-10---------------------*|| 
-----------------------------12--12~-----10-------|| 
--------------------------------------------------|| 
 
--------------------------------| 
--15--15~---13b-----------------| 
--------------------------------| 
--------------------------------| 
--------------------------------| 
--------------------------------| 
 
--------13-15-15b15-14-15p14----13-14-15-15r---15b-13-15b--13--| 
-----15----------------------15--------------------------------| 
---------------------------------------------------------------| 
---------------------------------------------------------------| 
---------------------------------------------------------------| 
---------------------------------------------------------------| 
 
--15-15-15~---------------------| 
--------------------------------| 
--------------------------------| 
--------------------------------| 
--------------------------------| 
--------------------------------| 
 
------13-15-15b15b15b-15b-15b-15b-15b15------------17b---| 
---15-------------------------------------------15-------| 
------------------------------------------15/16----------| 
---------------------------------------------------------| 
---------------------------------------------------------| 
---------------------------------------------------------| 
 
-----17-15-17-------------------------| 
--------------17r----15~--------------| 
------------------16------------------| 
--------------------------------------| 
--------------------------------------| 
--------------------------------------| 
 
-------------17b17-15-17----------------17-19-------9/10-----------| 
----------15-------------17r15h17p15-17b------17b---------10----10-| 
----15/16----------------------------------------------------12----| 
-------------------------------------------------------------------| 
-------------------------------------------------------------------| 
-------------------------------------------------------------------| 
 
----------------------------------|--------------------------10-12-12b-| 
------------------------10--------|--------------------11/12-----------| 
10-11-------------10-12----10-11--|------------------------------------| 
---------------12-----------------|------------------------------------| 
----------------------------------|------------------------------------| 
----------------------------------|------------------------------------| 
 
--10----10--------------------------------------10--| 
-----10----10------10------------------------10-----| 
--------------12~-----10b---------------------------| 
----------------------------12-10-------------------| 
----------------------------------12----10----------| 
----------------------------------------------------| 
 
------------15b-15b---13-15-13/14-15p14----13/14-15p14----| 
--15~-----------------------------------15-------------15-| 
----------------------------------------------------------| 
----------------------------------------------------------| 
----------------------------------------------------------| 
----------------------------------------------------------| 
 
14----------------10----------------------------------------------------| 
-15-15-15~-----10----13-10-13p10h13p10----10-13-10----10----------------| 
-------------x-------------------------12----------12----12-10----------| 
---------------------------------------------------------------12-10-12-| 
------------------------------------------------------------------------| 
------------------------------------------------------------------------| 
 
-------------------------------------------|----------------------------| 
-------9/10--------------------------------|--15~-----------------------| 
------------12-10--------------------------|----------------------------| 
12~---------------12-10--------------------|----------------------------| 
------------------------12-12------10------|----------------------------| 
-------------------------------------------|----------------------------| 
 
------13-15-15b-15b-15b-15-14-15-14-15--15r14----13/14--------------| 
---15-----------------------------------------15-------15-15-15-15~-| 
--------------------------------------------------------------------| 
--------------------------------------------------------------------| 
--------------------------------------------------------------------| 
--------------------------------------------------------------------| 
 
-------------------|----15b-15b-15b15---13-15-13--15r-13------------17b-| 
-------------------|--------------------------------------------15------| 
-------------------|--------------------------------------15/16---------| 
-------------------|----------------------------------------------------| 
-------------------|----------------------------------------------------| 
-------------------|----------------------------------------------------| 
 
-----17-15-17-----------------------------| 
--------------17r15----15-15~-------------| 
--------------------16--------------------| 
------------------------------------------| 
------------------------------------------| 
------------------------------------------| 
 
------17b--17-15-17----------------17-19-17------------| 
--------------------17r15----15/19-----------17b---15\-| 
--------------------------16---------------------------| 
-------------------------------------------------------| 
-------------------------------------------------------| 
-------------------------------------------------------| 
 
----------------------13/14-10---|--------------------------10-12-12b-| 
---------------------------------|--------------------10-12-----------| 
---------------------------------|------------------------------------| 
---------------------------------|------------------------------------| 
---------------------------------|------------------------------------| 
---------------------------------|------------------------------------| 
 
--10----10----------------------------------------| 
-----10----10------10-------------------------10--| 
--------------12~-----10~-------------------------| 
--------------------------12-10-------------------| 
--------------------------------12------10--------| 
--------------------------------------------------| 
 
--10--------13-15-15r-13----13-14-15-15b-15-13-15p13----14-----------| 
------15~----------------15--------------------------15/----15-15-15-| 
---------------------------------------------------------------------| 
---------------------------------------------------------------------| 
---------------------------------------------------------------------| 
---------------------------------------------------------------------| 
 
-------------------10-----------------------------------10-----------| 
--15~-----------10----13-10-13-10h13p10----10------------------------| 
----------10/11-------------------------12----12-10--12b---12b-12-10-| 
---------------------------------------------------------------------| 
---------------------------------------------------------------------| 
---------------------------------------------------------------------| 
 
------------------------------------------------| 
-----------------10-----------------------------| 
--12-10-------12b---12-10-----------------------| 
--------12~---------------12-10-----------------| 
--------------------------------12------10------| 
------------------------------------------------| 
 
---------------------------------------10--13--15--| 
---------------------------------------------------| 
--------------10-----------------------------------| 
--12-10-12~-------12-10----------------------------| 
------------------------12-12~-12~-----------------| 
---------------------------------------------------| 
 
--15b-----------------------| 
----------------------------| 
----------------------------| 
----------------------------| 
----------------------------| 
----------------------------| 
 
--15p13--------15p13---15p13h15---15p13-----15p13----13--------| 
--------15~-----------------------------15--------15----15-13\-| 
---------------------------------------------------------------| 
---------------------------------------------------------------| 
---------------------------------------------------------------| 
---------------------------------------------------------------| 
 
---------------------------------------------| 
------15/17-13\-15/17-12-12-13---------------| 
---------------------------------------------| 
---------------------------------------------| 
---------------------------------------------| 
---------------------------------------------| 
 
------13-15-17-15-14-15-13-15b------15-13-15------|| 
---15---------------------------------------------|| 
--------------------------------------------------|| 
--------------------------------------------------|| 
--------------------------------------------------|| 
--------------------------------------------------|| 
 

	  

No existe una video leccione para esta canción

request
LosAcordes
Buscar
auto avanzar rasgueos aumentar disminuir cambiar color esconder acordes gráficos
losacordes exhibir acordes losacordes youTube video losacordes ocultar tabs losacordes ir hacia arriba losacordes