Brooks And Dunn

Início > Brooks And... > acordes

Whiskey Under The Bridge (Solo) Tablatura

Brooks And Dunn

Dificultad:Ningún gradoNingún grado

vandcatarino

tuner correct add songbook print version text version salvar en e-mail
acordesukuleletablaturabajobateríaarmónicaflautacavacopiano Guitar Pro
acordes

Whiskey Under The Bridge (Solo)

	  PART 1 


   E                        B           E           E7             A 

E---------------------------7--6--5------------------------------------ 
B-------------------------------------2/3---6/7----8/9----11/12--12-14- 
G-----------------------4-6-6b-5b-4b--3/4---6/7----8/9----12/13--13-14- 
D--------------2-2-2-4/6------------------6------9-----12------14------ 
A-----------2-4-------------------------------------------------------- 
E--0-0-0-2/4----------------------------------------------------------- 




E-----17---| 
B----------| 
G--16b-----| 
D----------| 
A----------| 
E----------| 



PART 2 


   E                B           E               A                   E 
  
E--14b~-12----------------------10---7b-------------------------------| 
B----------14b~~-12-------------10br-8b------7--4/5---5---3---2p0-----| 
G-------------------11br-p9-11----------9p7--7--5/6---6---4---2p0-----| 
D------------------------------9------------9-------7---7---0---------| 
A-----------------------------------------------------------------2p0-| 
E---------------------------------------------------------------------| 


E------------ 
B------------ 
G------------ 
D------2----- 
A------------ 
E--3b-------- 


You really can’t tell if Brent is sliding into the double stops or 
picking each time.  Sliding is def easier and sounds 
identical really. Thanks again to Axehappy for the 
original tab.  This wasn’t meant to be a correction, 
rather a sound byte submission to help people start out 
learning the lick at a slower tempo.  I’m not sure that 
this is 100% correct as I haven’t heard the album version 
in a long time, but it is very close.  I will check it 
against the album version soon and make changes if 
necessary.  In the mean time, this is VERY close.
	  

No existe una video leccione para esta canción

request
Aumentar uno tonoAumentar uno tono
Aumentar uno semi-tonoAumentar uno semi-tono
Disminuir uno semi-tonoDisminuir uno semi-tono
Disminuir uno tonoDisminuir uno semi-tono
LosAcordes
Buscar
auto avanzar rasgueos aumentar disminuir cambiar color esconder acordes gráficos
losacordes exhibir acordes losacordes youTube video losacordes ocultar tabs losacordes ir hacia arriba losacordes