Brooks And Dunn

Início > Brooks And... > acordes

The Last Thing I Do (w/intro) Tablatura

Brooks And Dunn

Dificultad:Ningún gradoNingún grado

vandcatarino

tuner correct add songbook print version text version salvar en e-mail
acordesukuleletablaturabajobateríaarmónicaflautacavacopiano Guitar Pro
acordes

The Last Thing I Do (w/intro)

	  RIFF 1 (Used in intro and throughout song) 


E--8--7-------2--0--3-----------| 
B--10-8----3--3--1--0----3--3---| 
G----------2--2--0--0----2--2---| 
D--0--0--3b--0---2--0--3b--0----| 
A----------------3--2-----------| 
E-------------------3-----------| 



LEAD SOLO 


E---------------------------15br-p13-15-13b-----13---------------13--- 
B--12bh-12----12-12r-----------------------15p13--13b~~\-13h15-15--15- 
G--12bh----12----12r-10----------------------------------------------- 
D----------------------12\-------------------------------------------- 
A--------------------------------------------------------------------- 
E--------------------------------------------------------------------- 


E--13-15-15b-13b---------------13-13-----13-13-13------------------| 
B---------------15\--13--13-13-13-13-13--13-13-13-13---------------| 
G--------------------12b-12-12b------12bh---------12r-p10-12-10~~--| 
D------------------------------------------------------------------| 
A------------------------------------------------------------------| 
E------------------------------------------------------------------|
	  

No existe una video leccione para esta canción

request
LosAcordes
Buscar
auto avanzar rasgueos aumentar disminuir cambiar color esconder acordes gráficos
losacordes exhibir acordes losacordes youTube video losacordes ocultar tabs losacordes ir hacia arriba losacordes