Brooks And Dunn

Início > Brooks And... > acordes

My Maria Tablatura

Brooks And Dunn

Dificultad:FácilFácil

adalgomes

tuner correct add songbook print version text version salvar en e-mail
acordesukuleletablaturabajobateríaarmónicaflautacavacopiano Guitar Pro
acordes

My Maria

Tono:  Eb Más
My Maria Key A#A#
My Maria Key BB
My Maria Key CC
My Maria Key C#C#(Disminuir uno tono)
My Maria Key DD(Disminuir uno semi-tono)
My Maria Key EbEb(tono original)
My Maria Key EE(Aumentar uno semi-tono)
My Maria Key FF(Aumentar uno tono)
My Maria Key F#F#
My Maria Key GG
My Maria Key G#G#
My Maria Key AA
	  Brooks & Dunn: My Maria *drop D* 
My Maria - Brooks & Dunn  

May be the version I am listening to,  
but it has a drop D tuning and a capo on the 1st fret. 
Of course this is not 100% accurate,  
but it sounds close and I think it is a pretty easy version to play. 
 I hope someone can enoy this like I have! 

Tuning - D A D G B E 

! 

Intro 
                   D5   A5    G5 G5 
E--------------------------------------------| 
B--------------------------------------------| 
G--------------------------------------------| 
D--------------0----0----7----5--5-----------| 
A-------------------0----7----5--5-----------| 
D----0----2/5-------0----7----5--5-----------| 

                              D5   A5   G5 G5 
E------------------------------------------------------| 
B------------------------------------------------------| 
G------------------------------------------------------| 
D---------------0---------0----0----7----5--5----------| 
A------------------------------0----7----5--5----------| 
D----5----7/9------3b(5)-------0----7----5--5----------| 

                              D5  Dsus2  A5  G5 G5 
E-------------------------------------------------------| 
B-------------------------------------------------------| 
G------------------------------------7------------------| 
D---------------0---------0----0-----7---7----5--5------| 
A------------------------------0-----7---7----5--5------| 
D----5----7/9------3b(5)-------0---------7----5--5------| 
                            *lyrics begin*********     

Rest of song somewhat follows this pattern. The verses are mainly 
The 3rd set and the chorus is a little different. 
The Dsus2 to A5 is a quick changover. 
 Listen to the song for the correct strumming patterns and changes.  
You can use theLeper's chord tab on this site as a basis  
and you can figure it out from there.  
Just remember to add the extra Dsus2 in the pattern  
and change the chords to the ones provided below. 

	  

No existe una video leccione para esta canción

request
Aumentar uno tonoAumentar uno tono
Aumentar uno semi-tonoAumentar uno semi-tono
Disminuir uno semi-tonoDisminuir uno semi-tono
Disminuir uno tonoDisminuir uno semi-tono
LosAcordes
Buscar
auto avanzar rasgueos aumentar disminuir cambiar color esconder acordes gráficos
losacordes exhibir acordes losacordes youTube video losacordes ocultar tabs losacordes ir hacia arriba losacordes