Brooks And Dunn

Início > Brooks And... > acordes

Missing You Tablatura

Brooks And Dunn

Dificultad:Ningún gradoNingún grado

adalgomes

tuner correct add songbook print version text version salvar en e-mail
acordesukuleletablaturabajobateríaarmónicaflautacavacopiano Guitar Pro
acordes

Missing You

	  Gtr I   Electric Clean 
Gtr II  Electric Jazz 
Gtr III Electric w Distortion 
Gtr IV  Electric w Distortion 
Gtr V   Keyboard Arranged for Guitar 
Gtr VI  Strings Arranged for Guitar 

All Guitars Tuned Down 1/2 Step  

 Intro 
  Q=106 
  G                                   C5                D5 
 4/4 
  Gtr I 
  E E E E Q   E E   E E E E Q   E E   E E E E Q   E E   E E E  Q   E E E 
|-----------------|-----------------|-----------------|-------^3---------| 
|---0-3---3-------|---0-3---3-------|---0-3---3-------|---0-3-^1---0-----| 
|-0-----0-----2-2-|-0-----0-----2-2-|-0-----0-----2-2-|-0-----^2-----2-0-| 
|-----------------|-----------------|-----------------|------------------| 
|-----------------|-----------------|-----------------|------------------| 
|-----------------|-----------------|-----------------|------------------| 
| 
| Gtr III 
| PM-------------------------------------------------------------------| 
| E E E E E E E E   E E E E E E E E   E E E E E E E E   E E E  E E E E E 
|-----------------|-----------------|-----------------|------------------| 
|-----------------|-----------------|-----------------|------------------| 
|-----------------|-----------------|-----------------|------------------| 
|-----------------|-----------------|-x-x-x-x-x-x-x-x-|-x-x-x--x-x-x-x-x-| 
|-x-x-x-x-x-x-x-x-|-x-x-x-x-x-x-x-x-|-x-x-x-x-x-x-x-x-|-x-x-x--x-x-x-x-x-| 
|-x-x-x-x-x-x-x-x-|-x-x-x-x-x-x-x-x-|-----------------|------------------| 
| 
| Gtr IV 
| PM-------------------------------------------------------------------| 
| E E E E E E E E   E E E E E E E E   E E E E E E E E   E E E  E E E E E 
|-----------------|-----------------|-----------------|------------------| 
|-----------------|-----------------|-----------------|------------------| 
|-----------------|-----------------|-----------------|------------------| 
|-----------------|-----------------|-x-x-x-x-x-x-x-x-|-x-x-x--x-x-x-x-x-| 
|-x-x-x-x-x-x-x-x-|-x-x-x-x-x-x-x-x-|-x-x-x-x-x-x-x-x-|-x-x-x--x-x-x-x-x-| 
|-x-x-x-x-x-x-x-x-|-x-x-x-x-x-x-x-x-|-----------------|------------------| 


  G5                                  C5                D5 
  E E E E Q   E E   E E E E Q   E E   E E E E Q   E E   E E E  Q   E E E 
|-----------------|-----------------|-----------------|-------^3----------| 
|---0-3---3-------|---0-3---3-------|---0-3---3-------|---0-3-^1---0------| 
|-0-----0-----2-2-|-0-----0-----2-2-|-0-----0-----2-2-|-0-----^2-----2-0--| 
|-----------------|-----------------|-----------------|-------------------| 
|-----------------|-----------------|-----------------|-------------------| 
|-----------------|-----------------|-----------------|-------------------| 
| 
| PM-------------------------------------------------------------------| 
| E E E E E E E E   E E E E E E E E   E E E E E E E E   E E E  E E E E E 
|-----------------|-----------------|-----------------|-------------------| 
|-----------------|-----------------|-----------------|-------------------| 
|-----------------|-----------------|-----------------|-------------------| 
|-----------------|-----------------|-x-x-x-x-x-x-x-x-|-x-x-x--x-x-x-x-x--| 
|-x-x-x-x-x-x-x-x-|-x-x-x-x-x-x-x-x-|-x-x-x-x-x-x-x-x-|-x-x-x--x-x-x-x-x--| 
|-x-x-x-x-x-x-x-x-|-x-x-x-x-x-x-x-x-|-----------------|-------------------| 
| 
| PM-------------------------------------------------------------------| 
| E E E E E E E E   E E E E E E E E   E E E E E E E E   E E E  E E E E E 
|-----------------|-----------------|-----------------|-------------------| 
|-----------------|-----------------|-----------------|-------------------| 
|-----------------|-----------------|-----------------|-------------------| 
|-----------------|-----------------|-x-x-x-x-x-x-x-x-|-x-x-x--x-x-x-x-x--| 
|-x-x-x-x-x-x-x-x-|-x-x-x-x-x-x-x-x-|-x-x-x-x-x-x-x-x-|-x-x-x--x-x-x-x-x--| 
|-x-x-x-x-x-x-x-x-|-x-x-x-x-x-x-x-x-|-----------------|-------------------| 


   Verse 
    G5                                C5               D5 
    Gtr II 
    E E E E Q  E E   E E E E Q  E E   E E E E Q  E E   E E E  Q  E E E 
||-----------------|----------------|----------------|-------^3----------|| 
||o---0-3---3------|---0-3---3------|---0-3---3------|---0-3-^1--0------o|| 
||--0-----0----2-2-|-0-----0----2-2-|-0-----0----2-2-|-0-----^2----2-0---|| 
||-----------------|----------------|----------------|-------------------|| 
||o----------------|----------------|----------------|------------------o|| 
||-----------------|----------------|----------------|-------------------|| 
| 
|   Gtr I 
|   E E E E Q  E E   E E E E Q  E E   E E E E Q  E E   E E E  Q  E E E 
||-----------------|----------------|----------------|-------^3----------|| 
||o---x-x---x------|---x-x---x------|---x-x---x------|---x-x-^1--0------o|| 
||--x-----x----x-x-|-x-----x----x-x-|-x-----x----x-x-|-x-----^2----2-0---|| 
||-----------------|----------------|----------------|-------------------|| 
||o----------------|----------------|----------------|------------------o|| 
||-----------------|----------------|----------------|-------------------|| 


 Pre-Verse 
  E5                                  C5                 D5 
                                         - natural harmonic 
n  - artificial harmonic 
n(n) - tapped harmonic 
 ~   - vibrato 
 tr  - trill 
 T   - tap 
 TP  - trem. picking 
 PM  - palm muting 
\n/  - tremolo bar dip; n = amount to dip 
 \n  - tremolo bar down 
 n/  - tremolo bar up 
/n\  - tremolo bar inverted dip 
 =   - hold bend; also acts as connecting device for hammers/pulls 
   - volume swell (louder/softer) 
 x   - on rhythm slash represents muted slash 
 o   - on rhythm slash represents single note slash 

Misc Legend 
----------- 
 |  - bar 
||  - double bar 
||o - repeat start 
o|| - repeat end 
*|  - double bar (ending) 
 :  - bar (freetime) 
 $  - Segno 
 &  - Coda 
Tempo markers -  = BPM(8/16=s8/s16), where s8 = swing 8ths, s16 = swing 16ths
	  

No existe una video leccione para esta canción

request
LosAcordes
Buscar
auto avanzar rasgueos aumentar disminuir cambiar color esconder acordes gráficos
losacordes exhibir acordes losacordes youTube video losacordes ocultar tabs losacordes ir hacia arriba losacordes