Box Car Racer

Início > Box Car Ra... > acordes

Letters To God (ver. 2) Tablatura

Box Car Racer

Dificultad:Ningún gradoNingún grado

madman1133

tuner correct add songbook print version text version salvar en e-mail
acordesukuleletablaturabajobateríaarmónicaflautacavacopiano Guitar Pro
acordes

Letters To God (ver. 2)

	   
intro: 
 
e------------------- 
b------------------- 
g-------------------   x2 
d--2-0-0-0---------- 
a--2-0-1-2---------- 
e--0-2-2-3---------- 
 
verse: 
 
e------------------- 
b------------------- 
g-------------------   x4 
d--2-0-0------------ 
a--2-1-2------------ 
e--0-2-3------------ 
 
Chorus: 
 
e------------------- 
b------------------- 
g--------2----------   x2 
d--2-2-0-0---------- 
a--2-3-2------------ 
e--0-0-3------------ 
 
intro 
 
verse 
 
Chorusx2 

	  

No existe una video leccione para esta canción

request
LosAcordes
Buscar
auto avanzar rasgueos aumentar disminuir cambiar color esconder acordes gráficos
losacordes exhibir acordes losacordes youTube video losacordes ocultar tabs losacordes ir hacia arriba losacordes