Bob Dylan

Início > Bob Dylan > acordes

You're A Big Girl Now Tablatura

Bob Dylan

Dificultad:ExpertoExperto

VsWorld

tuner correct add songbook print version text version salvar en e-mail
acordesukuleletablaturabajobateríaarmónicaflautacavacopiano Guitar Pro
acordes

You're A Big Girl Now

	        G#m/E                   F#m7     E 

    e|----0-------0-------0-------0---|----------0---------------0---0-| 
    B|4---4-------4-------4-------2---|----0---0---0---0---0---0---0---| 
    G|3-------3-------3-------1---1---|----0---0---0---0---0---0---0---| 
    D|4-------4-------4-------2-------|----0---0---0---0---0---0---0---| 
    A|------------------------2-------|2---5-----------5---------------| 
    D|------------------------2-------|-\-/----------------------------| 


        G#m/E                       E    F#m7 
    e|----------------------0---0---0-|----------0-----------0---0---0-| 
    B|4---4---4---4---4---4---4-------|--------------------------------| 
    G|3---3---3---3---3---3---3-------|2---2---2---2---2---2---2---2---| 
    D|4---4---4---4---4---4---4---0---|2---2---2---2---2---2---2---2---| 
    A|----------------------------0---|2---2---2---2---2---2---2---2---| 
    D|--------------------------------|--------------------------------| 

          Our conversation                   was short and sweet 

        G#m/E                       E    F#m7 
    e|--------------0-------0---0---0-|------0-----0---------0---0---0-| 
    B|4---4---4---4---4---4---4-------|--------1---1-------------------| 
    G|3---3---3---3---3---3---3-------|2---2---2---2---2---2---2---2---| 
    D|4---4---4---4---4---4---4---0---|2---2---2---2---2---2---2---2---| 
    A|----------------------------0---|2---2---2---2---2---2---2---2---| 
    D|--------------------------------|--------------------------------| 

              Nearly knocked me                off of my feet  And I'm 

        E                       A 
    e|------0---------------0---0---0-|----------0-----------0---0---0-| 
    B|--------------------------------|2---2---2---2---2---2---2---2---| 
    G|0---0---0---0---0---0---0---0---|1---1---1---1---1---1---1---1---| 
    D|0---0---0---0---0---0---0---0---|0---0---0---0---0---0---0---0---| 
    A|0---0---0---0---0---0---0---0---|2---2---2---2---2---2---2---2---| 
    D|0---0---0---0---0---0---0---0---|--------------------------------| 

      back in the rain,                oh,         and you are on dry 

        E                    G#m/E A 
    e|------0-----------0---0---0---0-|----------0-----------0---0---0-| 
    B|----------------------------4---|2---2---2---2---2---2---2---2---| 
    G|0---0---0---0---0---0---0---3---|1---1---1---1---1---1---1---1---| 
    D|0---0---0---0---0---0---0---4---|0---0---0---0---0---0---0---0---| 
    A|0---0---0---0---0---0---0-------|2---2---2---2---2---2---2---0---| 
    D|0---0---0---0---0---0---0-------|--------------------------------| 

      land,               oh,                     You made it there some- 


        F#m7                             G#m/E           B7sus2 
    e|------0-0-0-0------------0------|----0---0-0-0-0-0---0---0-0-0-0-| 
    B|--------2---2-------------------|2S4-4---4---4---2---2---2---2---| 
    G|1---1---1---1---1---1--1---1----|1S3-3---3---3---1---1---1---1---| 
    D|2---2---2---2---2---2--2---0----|2S4-4---4---4---2---2---2---2---| 
    A|2---2-----------2---2--2---0----|--------------------------------| 
    D|--------------------------------|--------------------------------| 

      how                                      You're a big girl now. 

        E                                  B 
    e|------0-0---0-----0-0-0-0-0-0-0-|------7-7---7-------7-----0-0-0-| 
    B|--------0---0-----0-0-0-2-2-2-0-|------7-7---7-------7-----0-0-0-| 
    G|0---0---0---0-------0---1-1-1-0-|0---0---7---7-------7---7-0-0-0-| 
    D|0---0-------0---0-------0---0---|0---0---7---7---7---7---7-0-0-0-| 
    A|0---0-------------------2---2---|0---0-----------7-------7-------| 
    D|0---0---------------------------|0---0-----------7---------------| 

    VERSE 2 
    ======= 

        G#m/E                       E    F#m7 
    e|----------------------0---0---0-|----------0-----------0---0---0-| 
    B|4---4---4---4---4---4---4-------|--------------------------------| 
    G|3---3---3---3---3---3---3-------|2---2---2---2---2---2---2---2---| 
    D|4---4---4---4---4---4---4---0---|2---2---2---2---2---2---2---2---| 
    A|----------------------------0---|2---2---2---2---2---2---2---2---| 
    D|--------------------------------|--------------------------------| 

              Bird on the horizon              sitting on a fence 
(etc) 

Bird on the horizon 
Sittin' on a fence 
He's singing his song for me 
At his own expense 
And I'm just like that bird 
Oh-oh 
Singin' just for you 
Oh-oh 
I hope that you can hear 
Hear me singin' through these tears 


Love is so simple 
To quote a phrase 
You've known it all the time 
I'm learnin' it these days 
Oh, I know where I can find you 
Oh-oh 
In somebody's room 
Oh-oh 
It's a price I have to pay 
You're a big girl all the way 


Time is a jet plane 
It moves too fast 
Oh but what a shame 
That all we've shared can't last 
I can change I swear 
Oh-oh 
See what you can do 
Mm-mm 
I can make it through 
You can make it too 


A change in the weather 
Can be extreme 
But it ain't like changing 
Horses in midstream 
I'm going out of my mind 
Oh-oh 
With a pain that stops and starts 
Mm-mm 
Like a corkscrew to my heart 
Ever since we've been apart 
	  

No existe una video leccione para esta canción

request
Aumentar uno tonoAumentar uno tono
Aumentar uno semi-tonoAumentar uno semi-tono
Disminuir uno semi-tonoDisminuir uno semi-tono
Disminuir uno tonoDisminuir uno semi-tono
LosAcordes
Buscar
auto avanzar rasgueos aumentar disminuir cambiar color esconder acordes gráficos
losacordes exhibir acordes losacordes youTube video losacordes ocultar tabs losacordes ir hacia arriba losacordes