Bob Dylan

Início > Bob Dylan > acordes

Railroad Bill Tablatura

Bob Dylan

Dificultad:IntermedioIntermedio

rodr_aeh

tuner correct add songbook print version text version salvar en e-mail
acordesukuleletablaturabajobateríaarmónicaflautacavacopiano Guitar Pro
acordes

Railroad Bill

	                 C 

--------------|-----3-----------|-3---------3-----|-3---------1-----|-0---------------| 
--------------|-----------------|-----------------|-----------------|-----------------| 
--------------|-----------0-----|-------0---------|-------0---------|-----------------| 
--------------|--------(2)------|-------------2---|-------------2---|-----------------| 
------0---2---|-3---3-------3---|-3---3-----------|-3---3-----------|-----------------| 
-3----------|-----------------|-----------------|-----------------|-----3---2---1---| 

  E                                   F 

|-----0-0---------|-------0---------|-----1-1---------|-------1---------| 
|-----0-0---------|-----------0-----|-----1-1---1-----|-----------1-----| 
|-----------1-----|-0h1-------------|-----2-2-----2---|-0h2-------------| 
|-----------------|-------------2---|-0h3-------------|-----3-------3---| 
|-----------------|-----------------|-----------------|-----------------| 
|-0-----------0---|-----0---0-------|-----------------|-----------------| 

  C                 G                 C 

|-------0---------|-------3---------|-0---------0-----|-0---------0-----|| 
|-----------1-----|-----------0-----|-----------------|-----------------|| 
|-0---------------|-----------------|-------0---------|-------0---------|| 
|-----------------|-----------------|-------------2---|-------------2---|| 
|-----3-------3---|-------------0---|-3---3-----------|-3---3-----------|| 
|-----------------|-3---3-----------|-----------------|-----------------|| 

  C 

|-3---------3-----|-3---------3-----|/5-----5---------|-3-----0---------| 
|-----------------|-----------------|-----------------|-----------1-----| 
|-------0---------|-------0---------|(0)--------0-----|-----------------| 
|-------------2---|-------------2---|(4)----------4---|-----------------| 
|-3---3-----------|-3---3-----------|/5---5-----------|-3---3-----------| 
|-----------------|-----------------|-----------------|-------------0---| 

  E                                   F 

|-------0---------|-------0---------|-----1-1---------|-----1-1---------| 
|-----------------|-----------0-----|-----1-1---1-----|-1---1-1---1(1)--| 
|-0h1-------1-----|-0h1-------------|-----2-2---------|(0h2)2-2--(2-2)--| 
|-----------------|-------------2---|-0---------------|----------(3)3---| 
|-----------------|-----------------|-----3-------0---|-----------------| 
|-----0---0---0---|-----0---0-------|-----------------|-----------------| 

  C                 G                 C 

|-------0---------|------(3)--------|-0---------0-----|-0---------0-----|| 
|-----------1-----|-----------------|-----------------|-----------------|| 
|-0---------------|-----------0-----|-------0---------|-------0---------|| 
|-----------------|-------------0---|-------------2---|-------------2---|| 
|-----3-------3---|-----------------|-3---3-----------|-3---3-----------|| 
|-----------------|-3---3-----------|-----------------|-----------------|| 

C 
Railroad Bill, he ain't so bad, 
E                         F 
killed his mommy, shot a round in his dad /around with? 
C        G        C 
Ride old Railroad Bill. 
	  

No existe una video leccione para esta canción

request
Aumentar uno tonoAumentar uno tono
Aumentar uno semi-tonoAumentar uno semi-tono
Disminuir uno semi-tonoDisminuir uno semi-tono
Disminuir uno tonoDisminuir uno semi-tono
LosAcordes
Buscar
auto avanzar rasgueos aumentar disminuir cambiar color esconder acordes gráficos
losacordes exhibir acordes losacordes youTube video losacordes ocultar tabs losacordes ir hacia arriba losacordes