Beyoncé

Início > Beyoncé > acordes

Speechless Tablatura

Beyoncé

Dificultad:ExpertoExperto

idro2k

tuner correct add songbook print version text version salvar en e-mail
acordesukuleletablaturabajobateríaarmónicaflautacavacopiano Guitar Pro
acordes

Speechless

	  BEYONCE - Speechless 
 
E |--------------------|---------------------|----------------------|------------------------| 
B |-15~----------------|---------------------|----------------------|------------------------| 
G |--------------------|---------------------|----------------------|--17B-18----15-----17---| 
D |--------------------|---------------------|----------------------|------------------------| 
A |--------------------|---------------------|----------------------|------------------------| 
E |--------------------|---------------------|----------------------|------------------------| 
 
E |--------------------|---------------------|----------------------|--15~-------------------|  
B |--------------------|---------------------|----------------------|-------------15--18--15-| 
G |--------------------|--15---17---19-------|----9\12--12\15-------|------------------------| 
D |--------------------|---------------------|----------------------|------------------------| 
A |--------------------|---------------------|----------------------|------------------------| 
E |--------------------|---------------------|----------------------|------------------------| 
 
E |--------------------|---------------------|--10------------------|------------------------| 
B |--------------------|--------------11-13--|------11--------------|-----------13----11-----| 
G |-17B-18--15----17---|---------------------|----------12----------|---10--12------------12-| 
D |--------------------|---------------------|----------------------|------------------------| 
A |--------------------|---------------------|----------------------|------------------------| 
E |--------------------|---------------------|----------------------|------------------------| 
 
Outro - repeat 
E |-------------------------------------------------------------------------| 
B |-2-3\6--6-4-3-----2-3\6--6-4-3------2-3\6--6-4-3-------------------------| 
G |-------------------------------------------------------------------------| 
D |-------------------------------------------------------------------------| 
A |-------------------------------------------------------------------------| 
E |-------------------------------------------------------------------------| 
 
===================================== 
tabbed by idro - www.idro.co.uk 
My first ever tab. Might need some work here an there but sounds great.  
I used a TWD140 amp with some nice reverb. I also tried with the timing too. 
have a play with it. 
 
 
God bless.... 

	  

No existe una video leccione para esta canción

request
LosAcordes
Buscar
auto avanzar rasgueos aumentar disminuir cambiar color esconder acordes gráficos
losacordes exhibir acordes losacordes youTube video losacordes ocultar tabs losacordes ir hacia arriba losacordes