Beyoncé

Início > Beyoncé > acordes

At Last Tablatura

Beyoncé

Dificultad:ExpertoExperto

europeu

tuner correct add songbook print version text version salvar en e-mail
acordesukuleletablaturabajobateríaarmónicaflautacavacopiano Guitar Pro
acordes

At Last

	  Intro: 

e|---------------------------------------------------------| 
b|--18-15---------------------18-15------------------------| 
g|---------17-15--13-14-17-----------17-15---13p12-----12--| 
d|--------------------------------------------------15-----| 
a|---------------------------------------------------------| 
E|---------------------------------------------------------| 


e|---------------------------------------------------------| 
b|--18-15----------------16--------14----------------------| 
g|---------17-15---13-14-----12-13--------17p15------------| 
d----------------------------------------------------------| 
a|------------------------------------------------15-------| 
E|---------------------------------------------------------| 


This is played in the verses: 

e|---------------------------------------------------------| 
b|---10---13---15---17-----10---13---15---17---18---18--15-| 
g|---X-----X----X----X------X----X----X----X----X----X---X-| 
d|---7----10---12---14------7---10---12---14---15---15--12-| 
a|---------------------------------------------------------| 
E|---------------------------------------------------------| 

Second half of intro again: 

e|---------------------------------------------------------| 
b|--18-15----------------16--------14----------------------| 
g|---------17-15---13-14-----12-13--------17p15------------| 
d----------------------------------------------------------| 
a|------------------------------------------------15-------| 
E|---------------------------------------------------------| 

Verse again: 

e|---------------------------------------------------------| 
b|---10---13---15---17-----10---13---15---17---18---18--15-| 
g|---X-----X----X----X------X----X----X----X----X----X---X-| 
d|---7----10---12---14------7---10---12---14---15---15--12-| 
a|---------------------------------------------------------| 
E|---------------------------------------------------------| 

Thing after verse: 

e|-----------------------------| 
b|--20-18-20-21-20-18-20p18-20-| 
g|-----------------------------| 
d|-----------------------------| 
a|-----------------------------| 
E|-----------------------------| 

    dream          could speak to 
e|----------------------------------------------| 
b|----------------------------------------------| 
g|--10-------9--12----------------10------------| 
d|---X-------X---X-----------------X------------| 
a|---8-------7--10-----------------8------------| 
E|----------------------------------------------| 

    I         can call my own 
e|-----------------------------| 
b|-----------------------------| 
g|--9--10---4---------5--------| 
d|--X---X---X---------X--------| 
a|--7---8---2---------3--------| 
E|-----------------------------| 


    Thrill            cheek to 
e|-----------------------------------| 
b|-----------------------------------| 
g|---12----12---12----------------9--| 
d|----X---- X----X----------------X--| 
a|---10----10---10----------------7--| 
E|-----------------------------------| 

      I     -I           known 
e|-----------------------------| 
e|-----------------------------| 
b|----12-----16-----------17---| 
g|-----X------X------------X---| 
d|----10-----14-----------15---| 
a|-----------------------------| 


e|---21.--21-----------------------|      x2 
b|----------18----18-15----15------| 
g|---------------------------15\12-|
      

No existe una video leccione para esta canción

request
LosAcordes
Buscar
auto avanzar rasgueos aumentar disminuir cambiar color esconder acordes gráficos
losacordes exhibir acordes losacordes youTube video losacordes ocultar tabs losacordes ir hacia arriba losacordes