Ben Folds

Início > Ben Folds > acordes

Brick Tablatura

Ben Folds

Dificultad:ExpertoExperto

JaredCollins87

tuner correct add songbook print version text version salvar en e-mail
acordesukuleletablaturabajobateríaarmónicaflautacavacopiano Guitar Pro
acordes

Brick

Áño: 1997 - Álbum: Whatever and Ever Amen

	   
Intro:      
e|---0h2-----2---0---0-----0-------0-2-----2---0---0-----0-------0----- 
b|---------3-------3-----3---3---3-------3-------3-----3---3---3------- 
g|-------2-----2-------2-------2-------2-----2-------2-------2--------- 
d|---0-------------------------------0--------------------------------- 
a|--------------------------------------------------------------------- 
e|-------------------3-----------------------------3------------------- 
 
 
e|---2-----2---0-------0-----0-----:| 
b|-------3-------3---3-----3-------:| 
g|-----2-----2-----2-----1---------:|  (repeat for verse) 
d|---------------------------------:| 
a|---2-----------------------------:| 
e|-----------------0-----0---------:| 
 
Chorus: 
G    A   Dsus2  
G    A   Dsus2 
G    A   Dsus2 
G    A   G  D 
 
 
 
 
I love this awsome song.  Have fun with it. 

	  

No existe una video leccione para esta canción

request
Aumentar uno tonoAumentar uno tono
Aumentar uno semi-tonoAumentar uno semi-tono
Disminuir uno semi-tonoDisminuir uno semi-tono
Disminuir uno tonoDisminuir uno semi-tono
LosAcordes
Buscar
auto avanzar rasgueos aumentar disminuir cambiar color esconder acordes gráficos
losacordes exhibir acordes losacordes youTube video losacordes ocultar tabs losacordes ir hacia arriba losacordes