Babes In Toyland

Início > Babes In T... > acordes

Spun Tablatura

Babes In Toyland

Dificultad:Ningún gradoNingún grado

fernsantana

tuner correct add songbook print version text version salvar en e-mail
acordesukuleletablaturabajobateríaarmónicaflautacavacopiano Guitar Pro
acordes

Spun

	  (intro) 
E|-----------------------------------------------| 
B|-----------------------------------------------| 
G|------2-1-2--------4---------------------------| 
D|----3-------3----3-----------------------------| 
A|---------------4-----~4------------------------| 
E|--1--------------------------------------------| 

E|-----------------------------------------------| 
B|-----------------------------------------------| 
G|------2-1-2--------4-5-4-4------2-1-2--------4-| 
D|----3-------3----3------------3-------3----3---| 
A|---------------4-------------------------4-----| 
E|--1-------------------------1------------------| 

E|--------| 
B|--------| 
G|-3-4----| 
D|-----3--| 
A|--------| 
E|--------| 

(verso 4x) 
E|------------------------------------------------| 
B|--------------------------------------------0---| 
G|-----2-1-2--------4-3-4--------2-1-2----------4-| 
D|---3-------3----3-------3----3-------3----3-----| 
A|--------------4-------------------------4-------| 
E|-1-------------------------1--------------------| 

I live inside 
All invited inside 
Eyes flutter feathers 
My hairs fair like weather 
I've blown my recovery 
Living is nice 
When you're spun like a kite 
Sugar and tea and creem 
Looks like the sea is green with rivalry 

(Refrão 2x) 
E|------------------------------------------------| 
B|------------------------------------------------| 
G|------------------------------------------------| 
D|--3-xxxx-3-xxxx-3-xxxx-3-xxxx-3-xxxx-3-xxxx-----| 
A|--3-xxxx-3-xxxx-3-xxxx-3-xxxx-3-xxxx-3-xxxx-----| 
E|--1-xxxx-1-xxxx-1-xxxx-1-xxxx-1-xxxx-1-xxxx-----| 

E|-----------------------------| 
B|-----------------------------| 
G|--6-6-6-6-x-x-6-6-6-6-x-x----| 
D|--6-6-6-6-x-x-6-6-6-6-x-x----| 
A|--4-4-4-4-x-x-4-4-4-4-x-x----| 
E|-----------------------------| 

Now that I know just what you're all about 
I want out 

(verso 3x) 
I live inside 
All invited inside 
Sugar and tea and cream 
Looks like the sea is green with rivalry 

(Refrão 2x) 
Now that I know just what you're all about 
I want out 

(outro 3x) 
E|------------------------------------------------| 
B|--------4------4--------------------------------| 
G|------3------3------3-5-------------------------| 
D|----3------3------3-----------------------------| 
A|--3------3------3-------------------------------| 
E|------------------------------------------------| 

Life is real when you're dreaming 
Life's a dream when you're reeling 

then.. 
E|------------------------------------------------| 
B|------------------------------------------------| 
G|------------------------------------------------| 
D|--5-5-5-5-x-x-5-5-5-5-x-x-----------------------| 
A|--5-5-5-5-x-x-5-5-5-5-x-x-----------------------| 
E|--3-3-3-3-x-x-3-3-3-3-x-x-----------------------| 

Now I want out, i want out ... 

E|------------------------------------------------| 
B|------------------------------------------------| 
G|------------------------------------------------| 
D|--5-xxxx-5-xxxx-5-xxxx-5-xxxx-5-xxxx-5-xxxx-5555| 
A|--5-xxxx-5-xxxx-5-xxxx-5-xxxx-5-xxxx-5-xxxx-5555| 
E|--3-xxxx-3-xxxx-3-xxxx-3-xxxx-3-xxxx-3-xxxx-3333| 
	  

No existe una video leccione para esta canción

request
LosAcordes
Buscar
auto avanzar rasgueos aumentar disminuir cambiar color esconder acordes gráficos
losacordes exhibir acordes losacordes youTube video losacordes ocultar tabs losacordes ir hacia arriba losacordes