Babes In Toyland

Início > Babes In T... > acordes

Mother Tablatura

Babes In Toyland

Dificultad:Ningún gradoNingún grado

fernsantana

tuner correct add songbook print version text version salvar en e-mail
acordesukuleletablaturabajobateríaarmónicaflautacavacopiano Guitar Pro
acordes

Mother

	  (intro / verso) 

E|----------------------|------------------| 
B|----------------------|------------------| 
G|----------------------|---2--2--2--2-----| 
D|----2--2--2----000----|-222222222222222--| 
A|----2--2--2----222-0--|-000000000000000--| 
E|--000000000000-333----|------------------| 

E|-----------------|------------------| 
B|-----------------|-5-3-5-6-5-3-5----| 
G|--4-2-4-5-4-2-4--|------------------| 
D|-----------------|------------------| 
A|-----------------|------------------| 
E|-----------------|------------------| 

(riff principal) 
E|-----------------------------------| 
B|-----------------------------------| 
G|---------------33--------------55--| 
D|--222-575-2222-33-222-575-2222-55--| 
A|--222-575-2222-11-222-575-2222-33--| 
E|--000-353-0000----000-353-0000-----| 

(outro riff) 
E|-------------------| 
B|-------------------| 
G|--------5555-8b99--| 
D|--22222-5555-8b99--| 
A|--22222-3333-6b77--| 
E|--00000------------| 

(ponte) Em C C#m 

E|-----0-------3------4-------4----| 
B|------0-------5------5-------5---| 
G|-------0----5--5---6--6---6---6--| 
D|----2------5------6------6-------| 
A|---2------3------4------4--------| 
E|--0------------------------------| 
	  

No existe una video leccione para esta canción

request
Aumentar uno tonoAumentar uno tono
Aumentar uno semi-tonoAumentar uno semi-tono
Disminuir uno semi-tonoDisminuir uno semi-tono
Disminuir uno tonoDisminuir uno semi-tono
LosAcordes
Buscar
auto avanzar rasgueos aumentar disminuir cambiar color esconder acordes gráficos
losacordes exhibir acordes losacordes youTube video losacordes ocultar tabs losacordes ir hacia arriba losacordes