Babes In Toyland

Início > Babes In T... > acordes

Laugh My Head Off Tablatura

Babes In Toyland

Dificultad:Ningún gradoNingún grado

adalgomes

tuner correct add songbook print version text version salvar en e-mail
acordesukuleletablaturabajobateríaarmónicaflautacavacopiano Guitar Pro
acordes

Laugh My Head Off

	  Intro and the Main Riff 

E|---------------------------------------------------------------| 
B|---------------------------------------------------------------| 
G|---------------------------------------------------------------| 
D|---------------------------------------------------------------| 
A|-9-9-9-9-9-9-9-8-8-8-8-8-8-11-11-11-11-11-11-11-8-8-8-8-8-8-8--| 
E|-7-7-7-7-7-7-7-7-7-7-7-7-7--7-7-7-7-7-7-7-7-7-7-7-7-7-7-7-7-7--| 

Believe in me 
Die for me 
Drop at the feet of my dreams keep turning green 
The noose you choose 
Is nothing new 
The tracks are loose 
It's all an excuse 
I hold my breath 
I'm scared to death 
This is the truth 

{Chorus 

First you strum kind of randomly this chord, from the lowest to the highest string, 
you'll find it out playing to the song: 

---------------------| 
---------------------| 
---0-----------------| 
---0-----------------| 
---2-----------------| 
---------------------| 
You make me 

Then you play this: 
---------------------| 
---------------------| 
---------------------| 
---5-5-5-5-5-5-------| 
---5-5-5-5-5-5-------| 
---3-3-3-3-3-3-------| 
LAUGH MY HEAD off 
 
	  

No existe una video leccione para esta canción

request
LosAcordes
Buscar
auto avanzar rasgueos aumentar disminuir cambiar color esconder acordes gráficos
losacordes exhibir acordes losacordes youTube video losacordes ocultar tabs losacordes ir hacia arriba losacordes