Babasónicos

Início > Babasónico... > acordes

Egocripta Tablatura

Babasónicos

Dificultad:Ningún gradoNingún grado

rodr_aeh

tuner correct add songbook print version text version salvar en e-mail
acordesukuleletablaturabajobateríaarmónicaflautacavacopiano Guitar Pro
acordes

Egocripta

(Adrian Dargelos)

	  INTRO: 
e-----------------------------------------> 
b-----------------------------------------> 
g-----------------------------------------> 
D------------------------2--2-------------> 
A------------------------2--2-------------> 
E----5/6---5---3/5---3---0--0-------------> 


e--------------------------------------------------------> 
b--------------------------------------------------------> 
g--------------------------------------------------------> 
D--2--2--2----------------------------------------------->     X  3 
A--2--2--2-----------------------------------------------> 
E--0--0--0--0--3--5/6--7--6--5--3--6--5--3--0------------> 


e-----------3--3--3--------------------------> 
b-----------3--3--3--------------------------> 
g-----------X--X--X--------------------------> 
D--2--2--2--2--2--2--------------------------> 
A--2--2--2--2--2--2--------------------------> 
E--0--0--0--0--0--0--------------------------> 


Verso: 

e--------------------------------------------------------> 
b--------------------------------------------------------> 
g--------------------------------------------------------> 
D--2--2--2----------------------------------------------->     X  3 
A--2--2--2-----------------------------------------------> 
E--0--0--0--0--3--5/6--7--6--5--3--6--5--3--0------------> 


e-----------3--3--3--------------------------> 
b-----------3--3--3--------------------------> 
g-----------X--X--X--------------------------> 
D--2--2--2--2--2--2--------------------------> 
A--2--2--2--2--2--2--------------------------> 
E--0--0--0--0--0--0--------------------------> 

Aquí estoy ... 
en la ciudad donde flota la herrumbre 
padeciendo la histeria de la historia 
en el cadalso de mi vanidad 
¿Quien eres tu? 
Que le mostrás tu diente de oro a la gente 
que confundiste a los más insolentes 
que festejas de una manera especial 



E-----------------------------------------> 
b-----------------------------------------> 
g-----------------3/5--0------------------->    antes del estribillo hace algo asi con la 
D----------3-p5--------------------------->    guitarra (suena mucho mejor con distorsion) 
A----3-p5---------------------------------> 
E-----------------------------------------> 


Estribillo: 


 C                   G    D 
Sos el espejo de mis vanidades 


C                     G            D 
sos la mitad que se vuelve junta a mi 


C                     G         D 
alguien borroso, no pienso en nadie 


C                     Em 
adonde empiezo yo vos terminas. 


INTRO 

VERSO 


oigo tu voz ... 
es el calvario de los hombres antiguos 
que se retuercen confinados en sus tumbas 
como el gusano en su crisálidad 
te conozco bien ... 
gozaste en todos mis amargos renuncies 
me prometiste alivio y me llevaste 
a sucumbir el deseo de implotar 

ESTRIBILLO 
Sos el espejo de mis vanidades 
sos la mitad que se vuelve contra mí 
alguien borroso, 
no pienso en nadie 
a donde empiezo yo vos terminás 

y me pregunto quién sos 
quién sos, quién sos. 

Aca se toca esto: 

1------------------------------------------------------ 
2------------------------------------------------------ 
3--3/5----------------------------------------------- 
4--------2-2-2-2-2-5-5-5-5-5-7-7-7-7-7-8-8-----------2- 
5--------2-2-2-2-2-5-5-5-5-5-7-7-7-7-7-8-8-----------2- 
6--------0-0-0-0-0-3-3-3-3-3-5-5-5-5-5-6-6-5-3-6-5-3-0-
	  

No existe una video leccione para esta canción

request
Aumentar uno tonoAumentar uno tono
Aumentar uno semi-tonoAumentar uno semi-tono
Disminuir uno semi-tonoDisminuir uno semi-tono
Disminuir uno tonoDisminuir uno semi-tono
LosAcordes
Buscar
auto avanzar rasgueos aumentar disminuir cambiar color esconder acordes gráficos
losacordes exhibir acordes losacordes youTube video losacordes ocultar tabs losacordes ir hacia arriba losacordes