Avenged Sevenfold

Início > Avenged Se... > acordes

Strength Of The World Tablatura

Avenged Sevenfold

Dificultad:ExpertoExperto

tuner correct add songbook print version text version salvar en e-mail
acordesukuleletablaturabajobateríaarmónicaflautacavacopiano Guitar Pro
acordes

Strength Of The World

	  TUNING: DADGBE 
 
Tabbed by: ADAM COOK 
Email: [email protected] 
 
0:00 
E|----1------1------------1-----1----3-3h5p3--3------------3----------3---| 
B|------3------3------------3-----3-------------3------------3----------3-| 
G|--------2------2------------2--------------------0--0---------0--0------| 
D|---------------------------------------------------0--0---------0--0----| 
A|------------------------------------------------------------------------| 
D|--0----------------0-0--------------------------------------------------| 
 
 
1:23 GUITAR 1 
e|---------------------------------------------------------------------------| 
B|---------------------------------------------------------------------------| 
G|---------------------------------------------------------------------------| 
D|-0--------------------------5----------------------------------------------| 
A|-0--------------------------5----------------------------------------------| 
E|-0--------------------------5----------------------------------------------| 
 
1:23 GUITAR 2 
e|---------------------------------------------------------------------------| 
B|---------------------------------------------------------------------------| 
G|---------------------------------------------------------------------------| 
D|-----7------5--------------------------------------------------------------| 
A|-0-----8--8---7-5-7-8-7-5--------------------------------------------------| 
E|-0-0----------------------8------------------------------------------------| 
 
Then just listen to the song to play the two power chords till..  
 
1:48 
e|---------------------------------------------------------------------------| 
B|---------------------------------------------------------------------------| 
G|---------------------------------------------------------------------------| 
D|-----7------5--------------------------------------------------------------| 
A|-0-----8--8---7-5-7-8-7-5---------5-----7-----8-7-5------------------------| 
E|-0-0----------------------8-5-7-8---5-7---5-7--------8---------------------| 
 
1:53 
e|---------------------------------------------------------------------------| 
B|---------------------------------------------------------------------------| 
G|---------------------------------------------------------------------------| 
D|-0---------------1---1-1-0-------------------------------------------------| 
A|-0---------------1---1-1-0-------------------------------------------------| 
E|-0-0-0-0-0-0-0---1-0-1-1-0-------------------------------------------------| 
 
2:24 
e|---------------------------------------------------------------------------| 
B|---------------------------------------------------------------------------| 
G|---------------------------------------------------------------------------| 
D|---------0-----------0----3-2-1--3-2-1--------------0----------------------| 
A|---------0-----------0----3-2-1--3-2-1--------------0----------------------| 
E|-0-0-0-0-0---0-0-0-0-0----3-2-1--3-2-1--0-0-0-0-0-0-0----------------------| 
 
2:45 "strength of the world...." 
e|---------------------------------------------------------------------------| 
B|---------------------------------------------------------------------------| 
G|----------7-7----------------5-5-------------------------------------------| 
D|----------7-7--5-------------5-5--3---7------------------------------------| 
A|--5-5-5-5-5-5--5-----3-3-3-3-3-3--3---7------------------------------------| 
E|---------------5------------------3---7------------------------------------| 
 
3:20 
e|---------------------------------------------------------------------------| 
B|---------------------------------------------------------------------------| 
G|---------------------------------------------------------------------------| 
D|--0-------5-------8------10------------------------------------------------| 
A|--0-------5-------8------10------------------------------------------------| 
E|--0-------5-------8------10------------------------------------------------| 
 
4:56 
e|---------------------------------------------------------------------------| 
B|---------------------------------------------------------------------------| 
G|---------------------------------------------------------------------------| 
D|--0----5----8----10----13-----15-----17------------------------------------| 
A|--0----5----8----10----13-----15-----17------------------------------------| 
E|--0----5----8----10----13-----15-----17------------------------------------| 
 
5:32 
e|----------------------14-15-14-------------tr19-------------------------15b| 
B|----------------17-17------------12-12b13---------17-19-19h20-19---17-19---| 
G|------16-16-16----------------------------------------------------16-------| 
D|-(2)-----------------------------------------------------------------------| 
A|-(2)-----------------------------------------------------------------------| 
E|-(2)-----------------------------------------------------------------------| 

	  

No existe una video leccione para esta canción

request
LosAcordes
Buscar
auto avanzar rasgueos aumentar disminuir cambiar color esconder acordes gráficos
losacordes exhibir acordes losacordes youTube video losacordes ocultar tabs losacordes ir hacia arriba losacordes