Avenged Sevenfold

Início > Avenged Se... > acordes

Sidewinder Tablatura

Avenged Sevenfold

Dificultad:ExpertoExperto

LINEKERS

tuner correct add songbook print version text version salvar en e-mail
acordesukuleletablaturabajobateríaarmónicaflautacavacopiano Guitar Pro
acordes

Sidewinder

	  E|----------------------------------------------------------------------------| 
B|-6--------------5--------------2--------------3--------------5--------------| 
G|-7--------------5--------------2--------------3--------------5--------------| 
D|-7--------------5--------------2--------------3--------------5--------------| 
A|-5--------------3--------------0--------------1--------------3--------------| 
E|----------------------------------------------------------------------------| 

(guitarra 1) 
E|------------------5-------------------------------------8-------------------| 
B|-5h6h5----5--6--8---8--6--5---5--6--5---------------------------------------| 
G|-------7--------------------7---------7--6--5-----7/9-----------------------| 
D|----------------------------------------------------------------------------| 
A|----------------------------------------------------------------------------| 
E|----------------------------------------------------------------------------| 

E|--------------------------------5--6--5--6--5-------------------------------| 
B|---------------------5--6--5--6---------------8--6--5-----6p5---------------| 
G|---------6--7--6--7------------------------------------7------7--6--5-------| 
D|-8--7--8--------------------------------------------------------------------| 
A|----------------------------------------------------------------------------| 
E|----------------------------------------------------------------------------| 

E|-5---8---5---------------------------------------------tp--tp---tp--tp-------| 
B|-------6------6----------------------------------------/3---5---6---8--------| 
G|-----------7-------7-----------------------------5--5--/3---5---7---9--------| 
D|----------------7--------7--------------------------x------------------------| 
A|----------------------8-----5---8---5----3---5/7----7------------------------| 
E|-----------------------------------------------------------------------------| 

E|------------5h8p5-5-5----------------8-------/12--8-------8-/15-13-12--12---| 
B|-10\---------------------------5--6-----5--6-----------10------------13-----| 
G|-10\--5--7------------7--5--7-----------------------10----------------------| 
D|----------------------------------------------------------------------------| 
A|-5--8-----------------------------------------------------------------------| 
E|----------------------------------------------------------------------------| 

E|----------------13-10-------------------------------------------------10----| 
B|-13---13-14-15~~-------13-10-------------------------------------10-13------| 
G|---12------------------------12-13\12p10---10--12p10-------10-12------------| 
D|-----------------------------------------12-----------10-12-----------------| 
A|----------------------------------------------------------------------------| 
E|----------------------------------------------------------------------------| 

E|-13-10--------------------------------9-10-12-10-9--8--10-8-10/12-15p12-12--| 
B|------13-10------------------------10---------------------------------------| 
G|-----------12-10-(10)\------9-10-12-----------------------------------------| 
D|---------------------11-12--------------------------------------------------| 
A|----------------------------------------------------------------------------| 
E|----------------------------------------------------------------------------| 

E|-12h13p12-------------------------------------------------------------------| 
B|---------15-13-15--10-------------------------------------------------------| 
G|---------------------12-10-----12-10---------------------------9-12-10-9----| 
D|--------------------------12-10-----12-12-12-12-10-12--10---10--------------| 
A|----------------------------------------------------------12----------------| 
E|----------------------------------------------------------------------------| 

E|------------------------------13-12-10---------13-12-10---------13-12-10----| 
B|----------13-12-10---------13-----------------------------------------------| 
G|----10-12------------12-14--------------------------------------------------| 
D|-12-------------------------------------------------------------------------| 
A|----------------------------------------------------------------------------| 
E|----------------------------------------------------------------------------| 

(guitarra 2) 
E|---------------------------------------17-13------------17-13----------------| 
B|------------------------------17b(1/2)--------15---------------15------------| 
G|-----------------------------------------------------------------------------| 
D|-----------------------------------------------------------------------------| 
A|-----------------------------------------------------------------------------| 
E|-----------------------------------------------------------------------------| 
(guitarra 1) 

(riff 1) 
E|-11-12-10------------12-10-------------12-10-------10-----------------------| 
B|----------13---------------13----------------13-14----13-11-----------------| 
G|----------------------------------------------------------------------------| 
D|----------------------------------------------------------------------------| 
A|----------------------------------------------------------------------------| 
E|----------------------------------------------------------------------------| 

(guitarra 2) 
E|-------------15-12------------15-12-------------------------13-10------------------| 
B|-------------------13---------------13----------------------------11---------------| 
G|-----------------------------------------------------------------------------------| 
D|-----------------------------------------------------------------------------------| 
A|-----------------------------------------------------------------------------------| 
E|-----------------------------------------------------------------------(guitarra-1-| 

E|-10----------------10----------------10--12-10----------10-12----------------------| 
B|----13-11-------------13-11----11-13-----------13----13----------------------------| 
G|----------------------------10--------------------12-------------------------------| 
D|-----------------------------------------------------------------------------------| 
A|-----------------------------------------------------------------------------------| 
E|-----------------------------------------------------------------------------------| 

(guitarra 2) 
E|----------13-10----13-12-10----10-12-13--15-13-12----12-13-15---------------| 
B|----------------11----------11--------------------13------------------------| 
G|----------------------------------------------------------------------------| 
D|----------------------------------------------------------------------------| 
A|----------------------------------------------------------------------------| 
E|----------------------------------------------------------------------------| 

(guitarra 2) 

(riff 2) 
E|-17-13----------17-13----------15-12----------15-12------------13-10--------| 
B|-------15-------------15-------------13-------------13---------------11-----| 
G|----------------------------------------------------------------------------| 
D|----------------------------------------------------------------------------| 
A|----------------------------------------------------------------------------| 
E|----------------------------------------------------------------------------| 

E|-13-10----13-12-10-12-13-12-10----10-12-13--15-13-12---12-13-15-------------| 
B|-------11----------------------11--------------------13---------------------| 
G|----------------------------------------------------------------------------| 
D|----------------------------------------------------------------------------| 
A|----------------------------------------------------------------------------| 
E|----------------------------------------------------------------------------| 
	  

No existe una video leccione para esta canción

request
LosAcordes
Buscar
auto avanzar rasgueos aumentar disminuir cambiar color esconder acordes gráficos
losacordes exhibir acordes losacordes youTube video losacordes ocultar tabs losacordes ir hacia arriba losacordes