Avenged Sevenfold

Início > Avenged Se... > acordes

Shattered By Broken Dreams Tablatura

Avenged Sevenfold

Dificultad:ExpertoExperto

tuner correct add songbook print version text version salvar en e-mail
acordesukuleletablaturabajobateríaarmónicaflautacavacopiano Guitar Pro
acordes

Shattered By Broken Dreams

	  Tuning: Drop D 
 
I'm not sure if this is 100% correct, cause this is my first tab, and it's LONG!! 
 
Intro/Verse (Acoustic): 
e|---------0---------------0---------------0---------------0-----------------| 
B|-----1-----1---------1-----1---------1-----1---------1-----1---------------| 
G|-------2-----2---------2-----2---------2-----2---------2-----2-------------| 
D|---2---------------2-----------2---2---------------2-----------2-----------| 
A-0-------------0-----------------0-------------0---------------------------| 
D|------------------------------------------------------------------- Play---| 
                                                                          | 
e|-------------------------------------------------------------------  4x ---| 
B|-------------------------0---------------0---------------0-----------------| 
G|---------0-----------0-----0-----------0---0-----------0---0---------------| 
D|-----0-----0-------0---0-----0-------2-------2-------2-------2-------------| 
A|---2---2-----2---------------------2-----------2---2-----------2-----------| 
D-5-------------5---------------5-2---------------2-------------------------| 
 
Guitar One (Acoustic): 
e|---------------------------------------------------------------------------| 
B|---------------------------------------------------------------------------| 
G-5---5-5-5---5-5---5-5---5---5-5-4---4-4-4---4-4---4-4---4---4-4-----------| 
D-5---5-5-5---5-5---5-5---5---5-5-4---4-4-4---4-4---4-4---4---4-4-----------| 
A-3---3-3-3---3-3---3-3---3---3-3-2---2-2-2---2-2---2-2---2---2-2-----------| 
D|------------------------------------------------------------------- Play---| 
                                                                          | 
e|-------------------------------------------------------------------  4x ---| 
B|---------------------------------------------------------------------------| 
G-2---2-2-2---2-2---2-2---2---2-2---------------4---4-4-4-4-4-4-4-----------| 
D-2---2-2-2---2-2---2-2---2---2-2-5---5-5-5---5-4---4-4-4-4-4-4-4-----------| 
A-0---0-0-0---0-0---0-0---0---0-0-5---5-5-5---5-2---2-2-2-2-2-2-2-----------| 
D|---------------------------------5---5-5-5---5-----------------------------| 
 
Guitar Two ^after guitar one (Distorted): 
e|----------------------------------------------------------------------------| 
B|----------------------------------------------------------------------------| 
G-5---5-5-5---5-5---5-5---5-5-/9-9---9-12-12---12-12-9-9-9---9-9---9-9-9-9---| 
D|----------------------------------------------------------------------------| 
A|----------------------------------------------------------------------------| 
D|----------------------------------------------------------------------------| 
 
e|----------------------------------------------------------------------------------------------| 
B|----------------------------------------------------------------------------------------------| 
G-9-/14-14-14---14-14-14-14-14-14-14-14-16-16-17-17-17-16-16---16-14-14-12-12-12-12-10-10-10---| 
D|----------------------------------------------------------------------------------------------| 
A|----------------------------------------------------------------------------------------------| 
D|----------------------------------------------------------------------------------------------| 
 
e|-------------------------------------------------------------------| 
B|-------------------------------------------------------------------| 
G-9-9-9-9-9-9-9-9-9-9-9-9-9-9-9-9-4-4-4-4-4-4-4-4-9-9-7-7-5-5-4-4---| 
D|-------------------------------------------------------------------| 
A|-------------------------------------------------------------------| 
D|-------------------------------------------------------------------| 
 
e|-------------------------------------------------------------------| 
B|-------------------------------------------------------------------| 
G-5-5-5-5-5-5-5-5-5-5-5-5-5-5-5-5-4-4-4-4-4-4-4-4-4-4-4-4-4-4-4-4---| 
D|-------------------------------------------------------------------| 
A|-------------------------------------------------------------------| 
D|-------------------------------------------------------------------| 
 
Guitar One (heavy): 
e|-----------------------------------| 
B|-----:-:-:-:-:-:-:-:-:-:-:-:-:-:---| 
G-2---2-2-2-2-2-2-2-2-2-2-2-2-2-2---| Play 
D-2---2-2-2-2-2-2-2-2-2-2-2-2-2-2---|  4x 
A-0---0-0-0-0-0-0-0-0-0-0-0-0-0-0---| 
D|-----------------------------------| 
 
e|-----------------------------------| 
B|-----:-:-:-:-:-:---.-------.-------| 
G-2---2-2-2-2-2-2-2-2-----2-2-------| 
D-2---2-2-2-2-2-2-2-2-----2-2-------| 
A-0---0-0-0-0-0-0-0-0-----0-0-------| 
D|-----------------------------------| 
 
Guitar Two: 
e|-----------------------------------| 
B|-----------------------------------| 
G|-----------------------------------| 
D|-----------------------------------| 
A|-----------------------------3-2---| 
D|-----------------3-2-0-2-3-2-------| 
 
e|-------------------------------------| 
B|-------------------------------------| 
G-2---2-2-2h3p2-0-2-------------------| Play 
D|-------------------3-5-2-3-----------|  4x 
A|---------------------------3-5-2-0---| 
D|-------------------------------------| 
 
Both Guitars: 
e|-----------------------------------| 
B|-----------------------------------| 
G-9---9---9---7---7---5---5-4-------| Play 
D-x---x---x---x---x---x---x-x-------|  4x 
A-7---7---7---5---5---3---3-2-------| 
D|-----------------------------------| 
 
Guitar One: 
e|--------------------| 
B|-----:-:-----:------| 
G-2---2-2-5---5-4~---| Play 
D-2---2-2-5---5-5~---|  8x 
A-0---0-0-3---3-2~---| 
D|--------------------| 
 
Guitar Two playes an A power chord then comes in in the middle, and plays 4x. 
 
Both Guitars: 
e|-----------------------------------------------------| 
B-.---.---.---.---.---.---.---.---.---.---.---.---.---| 
G-2---2---2---2---2---2---2---2---2---2---2---2---2---| 
D-2---2---2---2---2---2---2---2---2---2---2---2---2---| 
A-0---0---0---0---0---0---0---0---0---0---0---0---0---| 
D|-----------------------------------------------------| 
 
e|-------------------------------------------------------------------------| 
B|-------------------------------------------------------------------------| 
G|-------------------------------------------------------------------------| 
D-0-0-0-0-0-0-0-0-2-2-2-2-2-2-2-2---0-0-0-0-0-0-0-0-2-2-2-2---------------| 
A-0-0-0-0-0-0-0-0-2-2-2-2-2-2-2-2---0-0-0-0-0-0-0-0-2-2-2-2-3-(3)-2-(2)---| 
D-0-0-0-0-0-0-0-0-2-2-2-2-2-2-2-2---0-0-0-0-0-0-0-0-2-2-2-2---------------| 
 
e|-------------------------------------------------------------------| 
B-:-::::::::::::::--::::::::::::::----------------------------------| 
G-2-222222222222225-55555555555555--::::::::::::::------------------| 
D-2-222222222222225-555555555555555-555555555555552-2-----------3---| 
A-0-000000000000003-333333333333335-555555555555552-2-----2-3-5-----| 
D|---------------------------------5-555555555555552-2---------------| 
 
e|-------------------------------------------------------------------| 
B|---::::::::::::::--::::::::::::::----------------------------------| 
G-2-222222222222225-55555555555555--::::::::::::::------------------| 
D-2-222222222222225-555555555555555-555555555555552-2-----------3---| 
A-0-000000000000003-333333333333335-555555555555552-2-----2-3-5-----| 
D|---------------------------------5-555555555555552-2---------------| 
 
Listen For Strumming Pattern 
e|-------------------------------------------------------------------| 
B|-------------------------------------------------------------------| 
G-2-2-2-2-2-2-2-2-5-5-5-5-------------------------------------------| 
D-2-2-2-2-2-2-2-2-5-5-5-5-2-0-----5-5-5-5-5-5-5-5-2-2-2-2-------3---| 
A-0-0-0-0-0-0-0-0-3-3-3-3-----3-2-5-5-5-5-5-5-5-5-2-2-2-2-2-3-5-----| 
D|---------------------------------5-5-5-5-5-5-5-5-2-2-2-2-----------| 
 
e|-------------------------------------------------------------------| 
B|-------------------------------------------------------------------| 
G-2-2-2-2-2-2-2-2-5-5-5-5-------------------------------------------| 
D-2-2-2-2-2-2-2-2-5-5-5-5-2-0-----5-5-5-5-5-5-5-5-2-2-2-2-2-2-2-2---| 
A-0-0-0-0-0-0-0-0-3-3-3-3-----3-2-5-5-5-5-5-5-5-5-2-2-2-2-2-2-2-2---| 
D|---------------------------------5-5-5-5-5-5-5-5-2-2-2-2-2-2-2-2---| 
 
e|----- 
B-.--- 
G-2--- 
D-2--- 
A-0--- 
D|----- 
 
Pick Slide 
 
e|------------------------------------------------| 
B|------------------------------------------------| 
G|------------------------------------------------| 
D-7-7-7-----0-2-3-0-0-0---10-10-9-9--------------| 
A-7-7-7-----0-2-3-0-0-0---10-10-9-9--------------| 
D-7-7-7-----0-2-3-0-0-0---10-10-9-9------ Play---| 
                                               | 
e|----------------------------------------  4x ---| 
B|--------------------------(tens)----------------| 
G|-----------------:::::::::-:-:-:-::::-----------| 
D-7-7-7-----0-2-3-00000000101010109999-----------| 
A-7-7-7-----0-2-3-00000000101010109999-----------| 
D-7-7-7-----0-2-3-00000000101010109999-----------| 
 
e|---- 
B|---- 
G-.-- 
D-7-- 
A-7-- 
D-7-- 
 
Pause 
 
Chorus: 
Guitar One: 
e|---------------------------------------------------------------------------| 
B|---------------------------------------------------------------------------| 
G-5-5-5-5-5-5-5-5-5-5-5-5-5-5-5-5-------------------------------------------| 
D-5-5-5-5-5-5-5-5-5-5-5-5-5-5-5-5-2-2-2-2-2-2-2-2-2-2-2-2-2-2-2-2-----------| 
A-3-3-3-3-3-3-3-3-3-3-3-3-3-3-3-3-2-2-2-2-2-2-2-2-2-2-2-2-2-2-2-2-----------| 
D|---------------------------------2-2-2-2-2-2-2-2-2-2-2-2-2-2-2-2--- Play---| 
                                                                          | 
e|-------------------------------------------------------------------  4x ---| 
B|---------------------------------------------------------------------------| 
G-2-2-2-2-2-2-2-2-2-2-2-2-2-2-2-2-.---.---.---.---.---.---.---.-------------| 
D-2-2-2-2-2-2-2-2-2-2-2-2-2-2-2-2-5---5---5---5---5---5---5---5-------------| 
A-0-0-0-0-0-0-0-0-0-0-0-0-0-0-0-0-5---5---5---5---5---5---5---5-------------| 
D|---------------------------------5---5---5---5---5---5---5---5-------------| 
 
Guitar Two: 
e|---------------------------------------------------------------------------| 
B|---------------------------------------------------------------------------| 
G-5-5-5-5-5-5-5-5-5-5-5-5-5-5-5-5-------------------------------------------| 
D-5-5-5-5-5-5-5-5-5-5-5-5-5-5-5-5-2-2-2-2-2-2-2-2-2-2-2-2-2-2-2-2-----------| 
A-3-3-3-3-3-3-3-3-3-3-3-3-3-3-3-3-2-2-2-2-2-2-2-2-2-2-2-2-2-2-2-2-----------| 
D|---------------------------------2-2-2-2-2-2-2-2-2-2-2-2-2-2-2-2--- Play---| 
                                                                          | 
e|-------------------------------------------------------------------  2x ---| 
B|---------------------------------------------------------------------------| 
G-2-2-2-2-2-2-2-2-2-2-2-2-2-2-2-2-.---.---.---.---.---.---.---.-------------| 
D-2-2-2-2-2-2-2-2-2-2-2-2-2-2-2-2-5---5---5---5---5---5---5---5-------------| 
A-0-0-0-0-0-0-0-0-0-0-0-0-0-0-0-0-5---5---5---5---5---5---5---5-------------| 
D|---------------------------------5---5---5---5---5---5---5---5-------------| 
 
e|----------------------------------------------------------------------------| 
B|----------------------------------------------------------------------------| 
G-5---5-5-5---5-5---5-5---5-5-/9-9---9-12-12---12-12-9-9-9---9-9---9-9-9-9---| 
D|----------------------------------------------------------------------------| 
A|----------------------------------------------------------------------------| 
D|----------------------------------------------------------------------------| 
 
e|----------------------------------------------------------------------------------------------| 
B|----------------------------------------------------------------------------------------------| 
G-9-/14-14-14---14-14-14-14-14-14-14-14-16-16-17-17-17-16-16---16-14-14-12-12-12-12-10-10-10---| 
D|----------------------------------------------------------------------------------------------| 
A|----------------------------------------------------------------------------------------------| 
D|----------------------------------------------------------------------------------------------| 
 
e|-------------------------------------------------------------------| 
B|-------------------------------------------------------------------| 
G-9-9-9-9-9-9-9-9-9-9-9-9-9-9-9-9-4-4-4-4-4-4-4-4-9-9-7-7-5-5-4-4---| 
D|-------------------------------------------------------------------| 
A|-------------------------------------------------------------------| 
D|-------------------------------------------------------------------| 
 
e|-------------------------------------------------------------------| 
B|-------------------------------------------------------------------| 
G-5-5-5-5-5-5-5-5-5-5-5-5-5-5-5-5-4-4-4-4-4-4-4-4-4-4-4-4-4-4-4-4---| 
D|-------------------------------------------------------------------| 
A|-------------------------------------------------------------------| 
D|-------------------------------------------------------------------| 
 
Outro: 
Guitar One: 
e|------------------------------------------------| 
B|------------------------------------------------| 
G|------------------------------------------------| 
D-2------------------------------------------2---| 
A-2------------------------------------------2---| 
D-2------------------------------------------2---| 
 
e|------------------------------------------------| 
B|------------------------------------------------| 
G|------------------------------------------------| 
D|------------------------------------------------| 
A-/7-----------------------------------------7---| 
D|------------------------------------------------| 
 
Pick Slide For Both Guitars 
 
Guitar One: 
e|----------------------------------------------------| 
B|----------------------------------------------------| 
G|---------------------------------::::::::::::::::---| Play 
D-2-2---2-2-2---4-5-5---5-5-5---5-4444444444444444---|  4x 
A-2-2---2-2-2---4-5-5---5-5-5---5-4444444444444444---| 
D-2-2---2-2-2---4-5-5---5-5-5---5-4444444444444444---| 
 
Guitar Two: 
e|----------------------------------------------------| 
B|----------------------------------------------------| 
G|----------------------------------------11----------| 
D|----------------------------------------x-----------| 
A|----------------------------------------9-----------| 
D|----------------------------------------------------| 
 
e|----------------------------------------------------| 
B|----------------------------------------------------| 
G-9-9---9-9-11---12-7-7---7-7-7---7-7~---------------| 
D-x-x---x-x-x----x--x-x---x-x-x---x-x----------------| 
A-7-7---7-7-9----10-5-5---5-5-5---5-5~---------------| 
D|----------------------------------------------------| 
 
e|-----------------------------------------------------| 
B|-----------------------------------------------------| 
G-9-9---9-9-11---12-7-7---7-7-7---7-11-11---11-8~-----| 
D-x-x---x-x-x----x--x-x---x-x-x---x-x--x----x--x------| 
A-7-7---7-7-9----10-5-5---5-5-5---5-9--9----9--6~-----| 
D|-----------------------------------------------------| 
 
Guitar 1: 
e|------| 
B|------| 
G-9~--- 
D-x---- Let Ring, then play guitar 2 part. 
A-7~--- 
D|------ 
 
Guitar 2: 
e|---------------------------------------------------------------------------------------| 
B|---------------------------------------------------------------------------------------| 
G|----------------------------------------:----:---:-------------------------------------| 
D-10-10-10-10-10-10-10-10-10-10-10-10-10-10---9---5---2-2-2-2-2-2-2-2-2-2-2-2-2-2-2-2---| Play 
A-10-10-10-10-10-10-10-10-10-10-10-10-10-10---9---5---2-2-2-2-2-2-2-2-2-2-2-2-2-2-2-2---|  4x 
D-10-10-10-10-10-10-10-10-10-10-10-10-10-10---9---5---2-2-2-2-2-2-2-2-2-2-2-2-2-2-2-2---| 
 
e|---------------------------------------------------------------------------| 
B|---------------------------------------------------------------------------| 
G-5-5-5-5-5-5-5-5-5-5-5-5-5-5-5-5-------------------------------------------| 
D-5-5-5-5-5-5-5-5-5-5-5-5-5-5-5-5-0-0-0-0-0-0-0-0-0-0-0-0-0-0-0-0-----------| 
A-3-3-3-3-3-3-3-3-3-3-3-3-3-3-3-3-0-0-0-0-0-0-0-0-0-0-0-0-0-0-0-0-----------| 
D|---------------------------------0-0-0-0-0-0-0-0-0-0-0-0-0-0-0-0--- Play---| 
                                                                          | 
e|-------------------------------------------------------------------  2x ---| 
B|---------------------------------------------------------------------------| 
G|---------------------------------------------------------------------------| 
D-5-5-5-5-5-5-5-5-3-3-3-3-3-3-3-3-2-2-2-2-2-2-2-2-0-0-0-0-0-0-0-0-----------| 
A-5-5-5-5-5-5-5-5-3-3-3-3-3-3-3-3-2-2-2-2-2-2-2-2-0-0-0-0-0-0-0-0-----------| 
D-5-5-5-5-5-5-5-5-3-3-3-3-3-3-3-3-2-2-2-2-2-2-2-2-0-0-0-0-0-0-0-0-----------| 
 
e|------------------------------------------------------------------------| 
B|------------------------------------------------------------------------| 
G-5~---------------------------------------------------------------------| 
D-5~------------------------------0~--------------------------------5~---| 
A-3~------------------------------0~--------------------------------5~---| 
D|---------------------------------0~--------------------------------5~---| 

	  

No existe una video leccione para esta canción

request
Aumentar uno tonoAumentar uno tono
Aumentar uno semi-tonoAumentar uno semi-tono
Disminuir uno semi-tonoDisminuir uno semi-tono
Disminuir uno tonoDisminuir uno semi-tono
LosAcordes
Buscar
auto avanzar rasgueos aumentar disminuir cambiar color esconder acordes gráficos
losacordes exhibir acordes losacordes youTube video losacordes ocultar tabs losacordes ir hacia arriba losacordes