Avenged Sevenfold

Início > Avenged Se... > acordes

Seize The Day (acoustic) Tablatura

Avenged Sevenfold

Dificultad:ExpertoExperto

ubirbomfim

tuner correct add songbook print version text version salvar en e-mail
acordesukuleletablaturabajobateríaarmónicaflautacavacopiano Guitar Pro
acordes

Seize The Day (acoustic)

	  

e|---------------------------------------------------------------------------| 
B|---------------------------------------------------------------------------| 
G|---------------------------------------------------------------------------| 
D|--7--7--------------------5--5----3--3----5--5----7--7--7--7---------------| 
A|--5--5----3--3----5--5----3--3----1--1----3--3----5--5--5--5---------------| 
E|----------1--1----3--3-----------------------------------------------------| 

e|---------------------------------------------------------------------------| 
B|---------------------------------------------------------------------------| 
G|---------------------------------------------------------------------------| 
D|----------------5--5--5--5-----------5--5----7--7--7--7--------------------| 
A|--5--5--5--5----3--3--3--3----3--3---3--3----5--5--5--5----5--5--5--5------| 
E|--3--3--3--3------------------1--1-------------------------3--3--3--3------| 

e|-------------------------------||------------------------------------------| 
B|-------------------------------||------------------------------------------|              
G|-------------------------------||------------------------------------------| 
D|--5--5--5--5-------------------||---7--7--------------------5--5----7--7---|              
A|--3--3--3--3----3--3--3--3-----||---5--5----5--5----3--3----3--3----5--5---| 
E|----------------1--1--1--1-----||-----------3--3----1--1-------------------| 
     ||play once then again|| 
e|-------------------------||-------------------------------------------|----| 
B|-------------------------||-------------------------------------------|----|       
G|-------------------------||-------------------------------------------|----| 
D|------------------5--5---||----------------5--5--5--5------------5--5-|----|       
A|--5--5----3--3----3--3---||--5--5--5--5----3--3--3--3----3--3----3--3-|----| 
E|--3--3----1--1-----------||--3--3--3--3------------------1--1---------|----| 
        
e|---------------------------------------------------------------------------| 
B|---------------------------------------------------------------------------| 
G|---------------------------------------------------------------------------| 
D|--3------------------------------------------------------------------------|Let ring 
A|--1------------------------------------------------------------------------|A melody, a memory,  
E|---------------------------------------------------------------------------|or just one picture... 

e|---------------------------------------------------------------------------| 
B|---------------------------------------------------------------------------| 
G|---------------------------------------------------------------------------| 
D|-----7--7--------------------5--5----7--7--------------------5--5----------| 
A|-----5--5----5--5----3--3----3--3----5--5----5--5----3--3----3--3----------| 
E|-------------3--3----1--1--------------------3--3----1--1------------------| 

e|----------------------------------------------------|----------------------| 
B|----------------------------------------------------|----------------------| 
G|----------------------------------------------------|----------------------| 
D|----------------5--5--5--5------------5--5----7--7--|--3-------------------|Let ring 
A|--5--5--5--5----3--3--3--3----3--3----3--3----5--5--|--1-------------------| 
E|--3--3--3--3------------------1--1------------------|----------------------| 

e|---------------------------------------------------------------------------| 
B|---------------------------------------------------------------------------| 
G|---------------------------------------------------------------------------| 
D|--7--7--------------------5--5----3--3----5--5----7--7--7--7---------------| 
A|--5--5----3--3----5--5----3--3----1--1----3--3----5--5--5--5---------------| 
E|----------1--1----3--3-----------------------------------------------------| 

e|---------------------------------------------------------------------------| 
B|---------------------------------------------------------------------------| 
G|---------------------------------------------------------------------------| 
D|--7--7--------------------5--5----3--3----5--5----7--7--7--7---------------| 
A|--5--5----3--3----5--5----3--3----1--1----3--3----5--5--5--5---------------| 
E|----------1--1----3--3-----------------------------------------------------| 

 

| /  slide up 
| \  slide down 
| h  hammer-on 
| p  pull-off 
| ~  vibrato 
| +  harmonic 
| x  Mute note 
 
	  

No existe una video leccione para esta canción

request
LosAcordes
Buscar
auto avanzar rasgueos aumentar disminuir cambiar color esconder acordes gráficos
losacordes exhibir acordes losacordes youTube video losacordes ocultar tabs losacordes ir hacia arriba losacordes