Avenged Sevenfold

Início > Avenged Se... > acordes

Natural Born Killer Tablatura

Avenged Sevenfold

Dificultad:ExpertoExperto

IronPower4Ever

tuner correct add songbook print version text version salvar en e-mail
acordesukuleletablaturabajobateríaarmónicaflautacavacopiano Guitar Pro
acordes

Natural Born Killer

	  (intro 8x) 

E|--------------------------------------------------------------------------| 
B|--------------------------------------------------------------------------| 
G|--------------------------------------------------------------------------| 
D|--------------------------------------------------------------------------| 
A|-----------------------------------------------------8-/-11---------------| 
D|--0-0-0-0-12-0-0-0-11-0-0-0-12-0-0-0-8-0-0-0-7-0-0-0-8-/-11---------------|  

E|-----------------------Synyster Gates goes rad about here-----------------| 
B|--------------------------------------------------------------------------| 
G|--------------------------------------------------------------------------| 
D|--------------------------------------------------------------------------| 
A|--------------------------------------------------------------------------| 
D|-1-1-1-1-1-1-1-1-1-1-1-1-1-1-1-1-1-1-1-1-1-1-1-1-1-1-1-1-1-1-1-1-----PING-| 

(main riff 2x) 

E|--------------------------------------------------------------------------| 
B|--------------------------------------------------------------------------| 
G|--------------------------------------------------------------------------| 
D|--------------------------------------------------------------------------| 
A|--0-----------------------------------------------------------------------| 
D|--0--0-0-0-0-3p0-5p0-7p0-6p0-5p0-3p0-0-0-0-0-0-0-0-0-0000000000000000-----|  

(verse 2x) 
E|------------------------------------------------------------------------| 
B|------------------------------------------------------------------------| 
G|------------------------------------------------------------------------| 
D|---------------------------------3-/-6----------------------------------| 
A|--0------------------------------1-/-4----------------------------------| 
D|--0--0-0-0-0-0-0-0-0-0-0------------------------------------------------|  

E|--------------------------------------------------------------------------| 
B|--------------------------------------------------------------------------| 
G|--------------------------------------------------------------------------| 
D|--------------------------------------------------------------------------| 
A|--0-----------------------------------------------------------------------| 
D|--0-0-0-0-0-0-0-0-0-0-0-0-0-0-0-0-5p0-7p0-8p0-7p0-5p0-7p0-5p0-7p0---------| 

E|--------------------------------------------------------------------------| 
B|--------------------------------------------------------------------------| 
G|--------------------------------------------------------------------------| 
D|--8----8----8--8----8----8--8----8----8--8--x--8-/-10---------------------| 
A|--6----6----6--6----6----6--6----6----6--6--x--6-/--8---------------------| 
D|--------------------------------------------------------------------------| 

E|--------------------------------------------------------------------------| 
B|--------------------------------------------------------------------------| 
G|--------------------------------------------------------------------------| 
D|--------------------------------------------------------------------------| 
A|--0-----------------------------------------------------------------------| 
D|--0--0-0-0-0-3p0-5p0-7p0-6p0-5p0-3p0-0-0-0-0-0-0-0-0-0000000000000000-----| 

E|--------------------------------------------------------------------------| 
B|--------------------------------------------------------------------------| 
G|--------------------------------------------------------------------------| 
D|--8----8----8--8----8----8--8----8----8--8--x--8-/-10---------------------| 
A|--6----6----6--6----6----6--6----6----6--6--x--6-/--8---------------------| 
D|--------------------------------------------------------------------------| 

E|-------------------------------------------------------------------------| 
B|-------------------------------------------------------------------------| 
G|-------------------------------------------------------------------------| 
D|-------------------------------------------------------------------------| 
A|--0----------------------------------------------------------------------| 
D|--0--0-0-0-0-3p0-5p0-7p0-6p0-5p0-3p0-0-0-0-0-0-0-0-0-0000000000000000----| 

(bridge) 
E|--------------------------------------------------------------------------| 
B|--------------------------------------------------------------------------| 
G|--------------------------------------------------------------------------| 
D|- 8~~~~~~~~--5~~~~~~~~--8~~~~~~~~--5~~~~~~~~------------------------------| 
A|--8~~~~~~~~--5~~~~~~~~--8~~~~~~~~--5~~~~~~~~------------------------------| 
D|--8~~~~~~~~--5~~~~~~~~--8~~~~~~~~--5~~~~~~~~------------------------------| 

(Refrão 4x) 
E|------------------------------------------------------------------------| 
B|------------------------------------------------------------------------| 
G|------------------------------------------------------------------------| 
D|--7--7--7-7--7--7--7-7--8--8--8-8--5--5--5-5----------------------------| 
A|--5--5--5-5--7--7--7-7--8--8--8-8--5--5--5-5----------------------------| 
D|--0--0--0-0--7--7--7-7--8--8--8-8--5--5--5-5----------------------------|  

E|-------------------------------------------------------------------------| 
B|-------------------------------------------------------------------------| 
G|-------------------------------------------------------------------------| 
D|--8-8--8-8--8-8--8-8--8--------------------------------------------------| 
A|--6-6--6-6--6-6--6-6--6--------------------------------------------------| 
D|-------------------------------------------------------------------------| 

(main riff) 

E|------------------------------------------------------------------------| 
B|------------------------------------------------------------------------| 
G|------------------------------------------------------------------------| 
D|--5---0-1---8--8888-7-5-5553-2------------------------------------------| 
A|--5---0-1---6--6666-5-3-5551-0------------------------------------------| 
D|--5---0-1---------------------------------------------------------------|  

E|-------------------------------------------------------------------------| 
B|-------------------------------------------------------------------------| 
G|-------------------------------------------------------------------------| 
D|--8-8--8-8--8-8--8-8--8-------1---1---1---1---1--------------------------| 
A|--6-6--6-6--6-6--6-6--6-------1---1---1---1---1--------------------------| 
D|------------------------------1---1---1---1---1--------------------------| 
	  

No existe una video leccione para esta canción

request
LosAcordes
Buscar
auto avanzar rasgueos aumentar disminuir cambiar color esconder acordes gráficos
losacordes exhibir acordes losacordes youTube video losacordes ocultar tabs losacordes ir hacia arriba losacordes