Avenged Sevenfold

Início > Avenged Se... > acordes

I Wont See You Tonight Part 1 Tablatura

Avenged Sevenfold

Dificultad:PrincipiantePrincipiante

Matheus Tolkki

tuner correct add songbook print version text version salvar en e-mail
acordesukuleletablaturabaixobateríaarmónicaflautacavacopiano Guitar Pro
acordes

I Wont See You Tonight Part 1

	  A guitar 
e|---------------------------------------------------------------------------| 
B|-8----10br10br10br------10br10br10br------7b-7p6p4p-2--------------6v-11-10| 
G|--------------------7-10-------------7-10-------------7-5-7-3--6h7---------| 
D|---------------------------------------------------------------------------| 
A|---------------------------------------------------------------------------| 
D|---------------------------------------------------------------------------| 
 
e|---------------------------------------------------------------------------| 
B|-10br10br10br8----8--8-10-11-13---13/11--10br10br10br-----7-8-8-10---------| 
G|---------------10------------------------------------7-10------------------| 
D|---------------------------------------------------------------------------| 
A|---------------------------------------------------------------------------| 
D|---------------------------------------------------------------------------| 
 
B guitar 
e|---------------------------------------------------------------------------| 
B|---------------------------------------------------------------------------| 
G|---------------------------------------------------------------------------| 
D|-5-----1----3----0----1--8--3----5----1----3----0--0h1--1h3----------------| 
A|-5-----1----3----0----1--8--3----5----1----3----0--0h1--1h3----------------| 
D|-5-----1----3----0----1--8--3----5----1----3----0--0h1--1h3----------------| 
 
clean part which i can figure out yet 
so here is what i think it is. 
e|---------------------------------------------------------------------------| 
B|---------------------------------------------------------------------------| 
G|-15----14----12----14--14-14----11----12----17-----------------------------| 
D|---12----12----12----12-----12----12----12---------------------------------| 
A|-----10----10----10-----------10----10----10-------------------------------| 
D|---------------------------------------------------------------------------| 
 
A&B guitar  
e|---------------------------------------------------------------------------| 
B|---------------------------------------------------------------------------| 
G|---------------------------------------------------------------------------| 
D|-5----1----8----3~-4~------------------------------------------------------| 
A|-5----1----8----3~-4~------------------------------------------------------| 
D|-5----1----8----3~-4~------------------------------------------------------| 
 
Then the clean part again 
 
A&B guitar 
e|---------------------------------------------------------------------------| 
B|---------------------------------------------------------------------------| 
G|---------------------------------------------------------------------------| 
D|-5----1----8----3~-4~--------------2x--------------------------------------| 
A|-5----1----8----3~-4~------------------------------------------------------| 
D|-5----1----8----3~-4~------------------------------------------------------| 
 
A guitar 
 
e|-15fb-15p13-15--13-13h15-17br-15p13h15-15b-17b17b17b----13-13b(14)p13p11---| 
B|-----------------------------------------------------15------------------15| 
G|---------------------------------------------------------------------------| 
D|---------------------------------------------------------------------------| 
A|---------------------------------------------------------------------------| 
D|---------------------------------------------------------------------------| 
 
e|-17--17-18-15-/15-17-18-20-22-19-20-15-17b-15-10-13-10-13-15---1817--1817--| 
B|---15--------------------------------------------------------15----15----15| 
G|---------------------------------------------------------------------------| 
D|---------------------------------------------------------------------------| 
A|---------------------------------------------------------------------------| 
D|---------------------------------------------------------------------------| 
 
e|-18-10-13b---1817---1817--18-10-12b--18-17---------------------------------| 
B|-----------15----15-----15-----------------15-18-------------------------11| 
G|-------------------------------------------------15-14----------14-12-14---| 
D|------------------------------------------------------/17-15-17------------| 
A|---------------------------------------------------------------------------| 
D|---------------------------------------------------------------------------| 
 
e|----13---13-13----------| 
B|-13b--13b---------------| 
G|------------------------| 
D|------------------------| 
A|------------------------| 
D|------------------------| 
 
B guitar 
e|---------------------------------------------------------------------------| 
B|---------------------------------------------------------------------------| 
G|---------------------------------------------------------------------------| 
D|-5----1----3----0----1----8--3----5----1----3----0----1--3-----------------| 
A|-5----1----3----0----1----8--3----5----1----3----0----1--3-----------------| 
D|-5----1----3----0----1----8--3----5----1----3----0----1--3-----------------| 
 
A&B guitar 
e|---------------------------------------------------------------------------| 
B|---------------------------------------------------------------------------| 
G|---------------------------------------------------------------------------| 
D|-5----3----1----0--0h1--1h3------------------------------------------------| 
A|-5----3----1----0--0h1--1h3---2x-------------------------------------------| 
D|-5----3----1----0--0h1--1h3------------------------------------------------| 
 
A guitar(I think there is a little bit of wha pedal in this) 
e|---------------------------------------------------------------------------| 
B|-8----8-10-11-13-13br13br-11~---11-10---------7-10-15-10-13-11-13-11-------| 
G|--------------------------------------11-5---------------------------------| 
D|-------------------------------------------7-------------------------------| 
A|---------------------------------------------------------------------------| 
D|---------------------------------------------------------------------------| 
 
e|------------/15-13/--17--17-17b--15---20b-----18-17-13---------------------| 
B|-8-11-13-15------------15--15-------------------------13--------13---------| 
G|---------------------------------------------------------14-/14----15-14---| 
D|---------------------------------------------------------------------------| 
A|---------------------------------------------------------------------------| 
D|---------------------------------------------------------------------------| 
 
e|--13-11---10b----------| 
B|--------8--------------| 
G|-----------------------| 
D|-----------------------| 
A|-----------------------| 
D|-----------------------| 
 
B guitar 
e|---------------------------------------------------------------------------| 
B|---------------------------------------------------------------------------| 
G|---------------------------------------------------------------------------| 
D|-5----1----3----0----1----8--3----5----1----3----0----1--3-----------------| 
A|-5----1----3----0----1----8--3----5----1----3----0----1--3-----------------| 
D|-5----1----3----0----1----8--3----5----1----3----0----1--3-----------------| 
 
A guitar 
e|---------------------------------------------------------------------------| 
B|---------------------------------------------------------------------------| 
G|--5-7-5-7---7-5-7-8-7-5-7--5-7-5-7---7-5-7-8-7-5-7--5-7-5-7---7-5-7-8-7-5-7| 
D|----------8------------------------7------------------------8--------------| 
A|---------------------------------------------------------------------------| 
D|---------------------------------------------------------------------------| 
 
e|------------------------| 
B|------------------------| 
G|-5-7-5-7---3--5---------| 
D|---------7--------------|2x 
A|------------------------| 
D|------------------------| 
 
B guitar 
e|---------------------------------------------------------------------------| 
B|---------------------------------------------------------------------------| 
G|---------------------------------------------------------------------------| 
D|-5----3----1----0--0h1--1h3------------------------------------------------| 
A|-5----3----1----0--0h1--1h3---2x-------------------------------------------| 
D|-5----3----1----0--0h1--1h3------------------------------------------------| 
 
Piano part (I just tabbed the singel notes not the chords) 
e|-------------I-------------------------------------------------------------| 
B|-------------I-------------------------------------------------------------| 
G|--8-7--------I-------------------------------------------7-----------------| 
D|------5-7-8--I---0---5-7-8--10-8-7-8----10--8-7-8--8-7-5---7-8-10--8-7-10-8| 
A|-------------I5------------------------------------------------------------| 
D|-------------I-------------------------------------------------------------| 
 
e|---------------------------------------------------------------------------| 
B|---------------------------------------------------------------------------| 
G|---------------------------------------------------------------------------| 
D|-8-7-8--10-8-10-8-12--12--7-8-10--8-7-8--12--7-8-10------------------------| 
A|---------------------------------------------------------------------------| 
D|---------------------------------------------------------------------------| 
 
A&B guitar 
e|---------------------------------------------------------------------------| 
B|---------------------------------------------------------------------------| 
G|---------------------------------------------------------------------------| 
D|-5555-3333-1111-3333-------------------------------------------------------| 
A|-5555-3333-1111-3333-----10x-----------------------------------------------| 
D|-5555-3333-1111-3333-------------------------------------------------------| 
 
A&B guitar 
e|---------------------------------------------------------------------------| 
B|---------------------------------------------------------------------------| 
G|---------------------------------------------------------------------------| 
D|-5---5----8---8----3---3----1---1------------------------------------------| 
A|-5---5----8---8----3---3----1---1----till the end--------------------------| 
D|-5---5----8---8----3---3----1---1------------------------------------------| 
 
 
 

	  

No existe una video leccione para esta canción

request
Aumentar uno tonoAumentar uno tono
Aumentar uno semi-tonoAumentar uno semi-tono
Disminuir uno semi-tonoDisminuir uno semi-tono
Disminuir uno tonoDisminuir uno semi-tono
LosAcordes
Buscar
auto avanzar rasgueos aumentar disminuir cambiar color esconder acordes gráficos
losacordes exhibir acordes losacordes youTube video losacordes ocultar tabs losacordes ir hacia arriba losacordes